Iron

Iron - Maiden - No Prayer For The Dying bass tab

No Prayer for the Dying ( Harris )

( From the album " No Prayer for the Dying" )

-----9---------12-------7-------5--------9---------12--------7----------5----

---9---9----12---12---7---7---5---5----9---9----12----12---7---7-----55---5--

-7-------10---------5-------3--------7-------10----------5-------3-3--------3

-----------------------------------------------------------------------------

-5---------9-9-----------------12-12----------------7-7------------5-5-------

-------9-9-----9-9-------12-12-------12-12------7-7-----7-7-----5-5---5-5----

---7-7-------------10-10--------------------5-5-------------3-3--------------

-----------------------------------------------------------------------------

--------9-9-----------------12-12---------------7-7------------5-5----------|

----9-9-----9-9-------12-12-------12-12-----7-7-----7-7----5-5-----5-5------|

7-7-------------10-10-------------------5-5-------------3-3-----------------|

----------------------------------------------------------------------------|

Not a repeat!

-----------7-------------5---7-------9---------7---7---------4-------5-----7-

---------7-------------5----7-------9---------7----7-------4--------5-----7--

-7---5---------2---3-------5-------7-------5-------5----2--------3-------5---

-----------------------------------------------------------------------------

"(There are)

times when I've wondered.."

-------9------7----7--------4------5----7---------9------7----7--------4-----

----9--------7----7------4--------5----7-------9--------7----7------4--------

-7--------5------5----2-------3-------5-----7-------5-------5----2-----------

-----------------------------------------------------------------------------

------5----7-----------------------------------------------------------------

-----5----7------------------------------------------------------------------

-3-------5------7-7-7-7-7---5--5-5--5-5-5-----2-2-2-2-2---3--3-3--5-5-5------

-----------------------------------------------------------------------------

-----------------------------------------------------------------------------

-----------------------------------------------------------------------------

-7-7-7-7-7---5--5-5--5-5-5-----2-2-2-2-2---3--3-3--5-5-5-----7-7-7-7-7---5---

-----------------------------------------------------------------------------

-----------------------------------------------------------------------------

-----------------------------------------------------------------------------

-5-5--5-5-5-----2-2-2-2-2--3--3-3--5-5-5-----7-7-7-7-7---5--5-5--5-5-5-------

-----------------------------------------------------------------------------

------------------------9---------7---7------4----------5------7---------9---

---------------------------9-----7-----7--------4------5--------7-----9------

-2---2---2---3---5---7--------5------5----2---------3-------5------7---------

-----------------------------------------------------------------------------

-----7---7---------4------5----7--------9--------7---7-------4-------5---7---

----7-----7-----4----------5----7--------9------7-----7-------4----5------7--

-5------5----2--------3-------5------7------5-------5-----2------3-----5-----

-----------------------------------------------------------------------------

----9-----------7----7----------4------5----7--------------------------------

-------9-----7---------7-----4--------5----7---------------------------------

-7--------5---------5-----2--------3------5------7-7-7-7-7---5--5-5--5-5-5---

-----------------------------------------------------------------------------

-----------------------------------------------------------------------------

-----------------------------------------------------------------------------

-2-2-2-2-2---3--3-3--5-5-5----7-7-7-7-7---5--5-5--5-5-5---2-2-2-2-2---3--3-3-

-----------------------------------------------------------------------------

-----------------------------------------------------------------------------

-----------------------------------------------------------------------------

-5-5-5----7-7-7-7-7---5--5-5--5-5-5---2-2-2-2-2---3--3-3--5-5-5----7-7-7-7-7-

-----------------------------------------------------------------------------

-------------------------------------------9---------12---------7--------5---

-----------------------------------------9---9----12----12----7---7----5-----

-5--5-5--5-5-5----2---2---2---3---5----7-------10----------5---------3-------

-----------------------------------------------------------------------------

-----9---------12---------7----------5---5-------------9-9-----------------12

---9---9----12----12----7---7------5-------5-------9-9-----9-9-------12-12---

-7-------10-----------5--------3-3-----3-------7-7-------------10-10---------

-----------------------------------------------------------------------------

-12----------------7-7-----------5------5-----------9-9-----------------12-12

----12-12------7-7-----7-7-----5-------5--------9-9-----9-9-------12-12------

-----------5-5-------------3-3------3-------7-7-------------10-10------------

-----------------------------------------------------------------------------

----------------7-7------------5---5-------------9-9-----------------12-12---

-12-12------7-7-----7-7------5---5--5--------9-9-----9-9-------12-12-------12

--------5-5--------------3-3----------3--7-7-------------10-10---------------

-----------------------------------------------------------------------------

------------7-7-----------5-5------------------------------------------------

-12-----7-7-----7-7-----------5----------------------------------------------

----5-5-------------3-3-3--------5h7--7-7--7-7--7-7-7-7-7-7--5h7--7-7--7-7---

-----------------------------------------------------------------------------

(h = hammer on)

-----------------------------------------------------------------------------

-----------------------------------------------------------------------------

-7-7-7-7-7-7---3-3-3--3-3--3-3---5--5-5--5-5--5h7--7-7--7-7--7-7-7-7-7-7--5~7

-----------------------------------------------------------------------------

-----------------------------------------------------------|

--------------------------------5--5-4---4-4-4--7--7-5p4---|

-7-7--7-7--7-7-7-7-7-7---3-3-3-----------------------------|

-----------------------------------------------------------| This is NOT

(p = Pull off) a repeat!

|----------------------------------------------------------------------------

|.----7--9-----7--9-----7--9---7--9---7--10------7--9-----7--9-----7--9---7--

|.-7--------7--------7------------------------7--------7--------7------------

|----------------------------------------------------------------------------

Solo part.

-----------------------------------------------------------------------------

-9--7-10-----2--4-----2--4-----2--4---2--4---2--5-----3--5------3--5------5--

---------2--------2--------2----------------------3---------3---------5------

-----------------------------------------------------------------------------

----------------|------------------------------------------------------------

-7------5--7---.|.-------------------------------------------------------4---

-----5---------.|.--9-9-9--7--9---9---9-9-9--7--9---9---9-9-9--7--9----------

----------------|------------------------------------------------------------

Play 4 times.

-----------------------------------------------------------------------------

-5-4-2--0-2-4-----------------------------------------------------4--5-4-2---

---------------9--9-9--7--9---9---9-9-9--7--9---9---9-9-9--7--9--------------

-----------------------------------------------------------------------------

----------------|------------------------------------------------------------

-0-2-4--5-4-2--.|------------------------------------------------------------

---------------.|-9--9-9--9-9------7--7-7--7-7------2--2-2--2-2-----3---3----

----------------|------------------------------------------------------------

" God give me the answer to my life...", et cetera

-----------------------------------------------------------------------------

-----------------------------------------------------------------------------

-5---5---9--9-9--9-9------7--7-7--7-7------2--2-2--2-2--2----3---3----5---5--

-----------------------------------------------------------------------------

-----------------------------------------------------------------------------

-----------------------------------------------------------------------------

-9--9-9--9-9----7--7-7--7-7-----2--2-2--2-2----3---3----5---5----9--9-9--9-9-

-----------------------------------------------------------------------------

-----------------------------------------------------------9-----------12----

---------------------------------------------------------9---9-----12-----12-

---7--7-7--7-7-----2--2-2--2-2----3---3----5---5------7---------10-----------

-----------------------------------------------------------------------------

-----7--------5--------9----------12---------7----------5-----------------9-9

---7---7----5--------9---9-----12----12----7---7------5---5---5-------9-9----

-5--------3------7----------10----------5---------3-3-------3-----7-7--------

-----------------------------------------------------------------------------

-----------------12-12---------------7-7-------------5-5--------------9-9----

-9-9-------12-12-------12-12-----7-7-----7-7-----5-5-------5-------9-9----9-9

-----10-10-------------------5-5-------------3-3---------3-----7-7-----------

-----------------------------------------------------------------------------

-------------12-12---------------7-7---------------5---5-------------------||

-------12-12-------12-12-----7-7-----7-7------5-5---------5-----5----------||

-10-10-------------------5-5--------------3-3-------------------------7----||

---------------------------------------------------------------------------||

ritard.

Get this song at:  amazon.com sheetmusicplus.com

Share your thoughts

0 Comments found