Iron

Iron - Maiden - No More Lies guitar tab

INTRO 1 x2

top

E--------------------------------------------------------------------------------------------

A--------------------------------------------------------------------------------------------

D-7-------------------------------------------------10-10-9-10-9-10-9-10-10-7-5-7-5-7-5-7-5--

G--9-7-9-7-9-7-9-9-7-9-7-9-9-7-9-10-10-10-9-7-9-7-------------------------------------------7

B-------------------------------------------------8------------------------------------------

e--------------------------------------------------------------------------------------------

Intro 2 x4

top On the fourth time end in

E--------------------------------- D-7------------------

A--------------------------------- G---9-9-9-9-10-9-10-9

D-7-------------7-----------------

G---9-9-9-9-7-9---9-9-9-9-10-9-7-9

B---------------------------------

e---------------------------------

Intro 3 x4

top

E---------------------------------------------------------------

A---------------------------------------------------------------

D---------------------------------------------------------------

G-10-10-12-13-10-10-10-12-13-10-10-10-12-13-13-15-13-12-13-12-10

B---------------------------------------------------------------

e---------------------------------------------------------------

Verse 1 repeat till chorus

top

E-5---5---5---5---1---1---1---1---3---3---3---3--

A---7---7---7---7---3---3---3---3---5---5---5---5

D------------------------------------------------

G------------------------------------------------

B------------------------------------------------

e------------------------------------------------

Chorus

top

E-5-5-5-5-5-5-5-5-5-5-1-1-1-1-1-1-1-1-1-1-3-3-3-3-3-3-3-3-3-3-3-3-3-3-3-3-3-3-3

A-7-7-7-7-7-7-7-7-7-7-3-3-3-3-3-3-3-3-3-3-5-5-5-5-5-5-5-5-5-5-5-5-5-5-5-5-5-5-5

D-7-7-7-7-7-7-7-7-7-7-3-3-3-3-3-3-3-3-3-3-5-5-5-5-5-5-5-5-5-5-5-5-5-5-5-5-5-5-5

G------------------------------------------------------------------------------

B------------------------------------------------------------------------------

e------------------------------------------------------------------------------

Get this song at:  amazon.com sheetmusicplus.com

Share your thoughts

0 Comments found