Iron

Iron - Maiden - My Generation bass tab

Start after the Chorus

||----------------------|---------------------------|---------------------|--

||--7-7-7-/-10--12--14--|--14-14-14--12-\-10--7--5--|--7--7-7-7--7-7-7-7--|--

||----------------------|---------------------------|---------------------|--

||----------------------|---------------------------|---------------------|--

------------------|--->--->-----------|--------------------|-----------------

-5--5-5-5--5-5-5--|---7---5-->--->----|--------------------|--7--7-7-7--7--7-

------------------|----------7---6----|--5-5-5-\-3--0------|-----------------

------------------|-------------------|-----------------3--|-----------------

look ou this part is preaty

fast...

------|-------------------|-----------------|-5-5-/-7-7-/-9-9--9-9-\-7-7--.-|

-7-7--|--5--5-5-5--5-5-5--|--7--5-----5--7--|-----------------------------5-|

------|-------------------|--------7--------|-------------------------------|

------|-------------------|-----------------|-------------------------------|

----------------------|-------------------|-------------->-->--|-------------

--7--7-7-7--7--7-7-7--|--5--5-5-5--5-5-5--|---7--7-7-7---5--5--|-------------

----------------------|-------------------|--------------------|--5--5-5-5---

----------------------|-------------------|--------------------|-------------

--------|----------------------|-------------------||

-->-->--|--7--7-7-7--7--7-7-7--|--5--5-5-5--5-5-5--||

--3--3--|----------------------|-------------------||

--------|----------------------|-------------------||

Get this song at:  amazon.com sheetmusicplus.com

Share your thoughts

0 Comments found