Iron

Iron - Maiden - Murders In The Rue Morgue bass tab

Tab explanations

-----------------------------------------------------

> Accent | / Slide up

. Staccatto | \ Slide down

h Hammer-on/ pull off | : Repeat

� Harmonic | ~ slight bend

-----------------------------------------------------

Murders in the Rue Morgue ( Harris )

( From the album " Killers " )

Harmonic

|-----------------------------------------|

----5-----7---12-----------5-----7---12------12-14-16-14-12-11-12-11-12-14---

-5-----5----7---12-7----5-----5----7---12------------------------------------

-----------------------------------------------------------------------------

-----------------------------------------------------------------------------

-12-11-12--11-12-14-12-11-9-7--14-16-14-12-11-12-11-12--11-12-14--12-11-9-7--

-----------------------------------------------------------------------------

-----------------------------------------------------------------------------

-----------------------------------------------------------------------------

|--------- 2 times ----------|

-7-7-7-7-7-7-7-7-7-7-7-------------------------------------------------------

-------------------------------------------.-.---------------------------.-.-

------------------------2--0-2-3--2-3-5--5-5-5--3-2-0-2--0-2-3--2-3-5--5-5-5-

-----------------------------------------------------------------------------

-----------------------------------------------------------------------------

------------------------------------------------.--------------.-------------

-3-2-0-2--0-2-3--2-3-2-0------------------------7-7-7-7-7--0-0-0-0-0-0-0-0-0-

-------------------------3-0-------------------------------------------------

Drum cue, then enter (Faster)

-----------------------------------------------------------------------------

-.---------------.------4-5-4----.--------------.----------.---------------.-

-4-4-4-4-4--2-3--5-5-5--------5--7-7-7-7-7--0-0-0-0-0-0-0--4-4-4-4-4--0-2--5-

-----------------------------------------------------------------------------

-----------------------------------------------------------------------------

-.-4-5-4----.--------------.--------------.--------------.-----4-5-4----.----

-5-------5--7-7-7-7-7--0-0-0-0-0-0-0-0-0--4-4-4-4-4--2-3-5-5-5-------5--7-7-7

-----------------------------------------------------------------------------

-----------------------------------------------------------------------------

----------.----------.--------------.-.--4-5-4-----.-------5-----------------

-7-7--0-0-0-0-0-0-0--4-4-4-4-4--0-2-5-5---------5--7-7-5-7---7-7-5-5-5-5-4---

---------------------------------------------------------------------------5-

"Murders in the..."

-----------------------------------------------------------------------------

-.-.-----5-7--9-9-9-9-9-7-5--.-------5-----------------------------------.---

-7-7-5-7---------------------7-7-5-7---7-7-7-7-7-7-5---7-----5-5-4-0-----7-7-

-----------------------------------------------------8---5-7---------0-------

-----------------------------------------------------------------------------

------------.--------------.---------------.------4-5-4-----.--------------.-

-7-7-7--0-0-0-0-0-0-0-0-0--4-4-4-4-4--0-0--5-5-5---------5--7-7-7-7-7--0-0-0-

-----------------------------------------------------------------------------

-----------------------------------------------------------------------------

--------------.--------------.-.--4-5-4----.--------------.--------------.---

-0-0-0-0-0-0--4-4-4-4-4--2-3-5-5--------5--7-7-7-7-7--0-0-0-0-0-0-0-0-0--4-4-

-----------------------------------------------------------------------------

-----------------------------------------------------------------------------

------------.-----4-5-4----.--------------.--------------.--------------.-.--

-4-4-4--0-0-5-5-5-------5--7-7-7-7-7--0-0-0-0-0-0-0-0-0--4-4-4-4-4--2-3-5-5--

-----------------------------------------------------------------------------

-----------------------------------------------------------------------------

-4-5-4----.-------5-----------------.-------5-7--9-9-9-9-9-7-5--.-------5----

-------5--7-7-5-7---7-7-5-5-5-5-4---7-7-5-7---------------------7-7-5-7---7--

----------------------------------5------------------------------------------

-----------------------------------------------------------------------------

---------------------------------------------------4-5--7-7-7-7-7-7--5-7-9--7

-7-7-7-7-7-5---7------5-5-4-0-7\-------------/7--5---------------------------

-------------8---5-7----------0----------------------------------------------

Drum cue, then enter

-----------7------------------------------------------------.----------------

-5---5-5-7---7-5----------4-5--7-7-7-7--7-7--5-7-9-9--7-5---5--5-5-5-5-5-5-4-

---7--------------5-7---7---------------------------------7------------------

-----------------------------------------------------------------------------

-------7---------------------------------------------------------------------

---5-7---7-5---.-------5-------------------.-------5-7--9-9-9-9-9-7-5--.-----

-7-------------7-7-5-7---7--7--5-5-5-5-4---7-7-5-7---------------------7-7-5-

-----------------------------------------5-----------------------------------

-----------------------------------------------------------------------------

---5------------------------------------------.--------------.--------------.

-7---7-7-7-7-7-7-5---7-----5-5-4-0-7----------7-7-7-7-7--0-0-0-0-0-0-0-0-0--4

-------------------8---5-7---------0-----------------------------------------

Drum cue

-----------------------------------------------------------------------------

---------------.-----4-5-4-----.--------------.--------------.--------------.

-4-4-4-4--0-0--5-5-5--------5--7-7-7-7-7--0-0-0-0-0-0-0-0-0--4-4-4-4-4--2-3-5

-----------------------------------------------------------------------------

-----------------------------------------------------------------------------

-.--4-5-4----.--------------.--------------.---------------.-----4-5-4----.--

-5--------5--7-7-7-7-7--0-0-0-0-0-0-0-0-0--4-4-4-4-4--0-0--5-5-5-------5--7-7

-----------------------------------------------------------------------------

-----------------------------------------------------------------------------

------------.--------------.--------------.-.--4-5-4----.-------5------------

-7-7-7--0-0-0-0-0-0-0-0-0--4-4-4-4-4--2-3-5-5--------5--7-7-5-7---7-7--5-5-5-

-----------------------------------------------------------------------------

-----------------------------------------------------------------------------

-------.-------5-7-9-9-9-9-9-7-5--.-------5----------------------------------

-5-4---7-7-5-7--------------------7-7-5-7---7--7-7-7-7-7-5---7-----5-5-4-0-7-

-----5-----------------------------------------------------8---5-7---------0-

----------------.----------.----------.---------------------------------.----

--------9-9-9-9-7--9-9-9-9-7--9-9-9-9-7---/10-9-7----7---------/9-9-9-9-7----

--------------------------------------------------10---10-9-7----------------

-----------------------------------------------------------------------------

Drum cue (Guitar solo)

---------.----------.--------------------------------.-------------9-.-------

-9-9-9-9-7--9-9-9-9-7--/10-9-7-----7-----------------2--2-2-2-2--0-0-0-------

--------------------------------10---10-9-7--3-3-3-3-------------------3-3-3-

-----------------------------------------------------------------------------

---.-------------9-.-----------.-------------9-.-----------.--.--------------

---2--2-2-2-2--0-0-0-----------2--2-2-2-2--0-0-0-----------2--0--0-0-0-0-----

-3--------------------3-3-3-3----------------------3-3-3-3---------------3-2-

-----------------------------------------------------------------------------

------------.--.---------------------------.-------------9-.----------.------

-.----------2--0--0-0-0-0------.-----------2--2-2-2-2--0-0-0----------2--2-2-

-0--3-3-3-3----------------3-2-0---3-3-3-3--------------------3-3-3-3--------

-----------------------------------------------------------------------------

--------9-.-----------.--.--------------------------.--.---------------------

-2-2--0-0-0-----------2--0--0-0-0-0------.----------2--0--0-0-0-0------.-----

-------------3-3-3-3-----------------3-2-0--3-3-3-3----------------3-2-0--3-3

-----------------------------------------------------------------------------

-----------------------------------------------------------------------------

-----------------------------------------------------------------------------

-3-3-2-0-2-2-2-2-2--3-3-3-3-2-0-2-2-2-2-2--3-3-3-3-2-0-2-2-2-2-2--3-3-3-3-2-0

-----------------------------------------------------------------------------

-----.--------.--------------------------------------------------------------

-.-.-3-.--.-.-5-9-7-5--.-------5-----------------.-------5-7-9-9-9-9-9-7-5--.

-2-3---3--3-5----------7-7-5-7---7-7-5-5-5-5-4---7-7-5-7--------------------7

-----------------------------------------------5-----------------------------

-----------------------------------------------------------------------------

-------5-----------------------------------------------.-------------.-------

-7-5-7---7--7-7-7-7-7-5---7-----5-5-4-0--7\--------/7--7-7-7-7-7-0-0-0-0-0-0-

------------------------8---5-7----------0-----------------------------------

Drum cue

-----------------------------------------------------------------------------

--------.---------------.-----4-5-4----.--------------.--------------.-------

-0-0-0--4-4-4-4-4--0-0--5-5-5-------5--7-7-7-7-7--0-0-0-0-0-0-0-0-0--4-4-4-4-

-----------------------------------------------------------------------------

-----------------------------------------------------------------------------

--------.-.--4-5-4----.--------------.--------------.---------------.-----4-5

-4--2-3-5-5--------5--7-7-7-7-7--0-0-0-0-0-0-0-0-0--4-4-4-4-4--0-0--5-5-5----

-----------------------------------------------------------------------------

-----------------------------------------------------------------------------

-4----.--------------.--------------.--------------.-.--4-5-4----.-------5---

---5--7-7-7-7-7--0-0-0-0-0-0-0-0-0--4-4-4-4-4--2-3-5-5--------5--7-7-5-7---7-

-----------------------------------------------------------------------------

-----------------------------------------------------------------------------

-----------------.-------5-7-9-9-9-9-9-7-5--.-------5------------------------

-7--5-5-5-5-4----7-7-5-7--------------------7-7-5-7---7--7-7-7-7-7-5---7-----

--------------5------------------------------------------------------8---5-7-

-----------------------------------------||

-----------------------------------------||

-5-5-4-0-7\-----/7-----------------------||

---------0-------------------------------||

Let note ring a while

Get this song at:  amazon.com sheetmusicplus.com

Share your thoughts

0 Comments found