Iron

Iron - Maiden - Mesugga guitar tab

Intro:

e|--------|------------------------------------------------|

B|--------|------------------------------------------------|

G|--------|------------------------------------------------|

D|--------|------------------------------------------------|

A|--------|------------------------------------------5-3-2-|

E|--10///-|-0-0-0-2-0-0-3-0-0-5/6--0-0-0-2-0-0-3-0-0-------|

e|------------------------------------------------|

B|------------------------------------------------|

G|------------------------------------------------|

D|------------------------------------------------|

A|------------------------5-5-5-3-3-3-2-5-3-2-----|

E|-0-0-0-2-0-0-3-0-0-5/6----------------------5-3-|

Fair enough?...

Get this song at:  amazon.com sheetmusicplus.com

Share your thoughts

0 Comments found