Iron

Iron - Maiden - Losfer Words bass tab

Losfer Words ( Harris )

( From the album " Powerslave " )

-------------|---------------------------------------------------------------

-------8-8\--|.--------------------------------------------------------------

-------------|.-0-0-0-0-0-0-0-0-0-0-0-0-0-0-0-0-0-0-0-0-0-3-2-3-0-0-0-0-0-0-0

-------------|---------------------------------------------------------------

Drum count off,

then bass enters

( \ = slide down )

--------------------------------|--------------------------------------------

-------------------------------.|--------------------------------------------

-0-0-0-0-0-0-0-0-0-0-0-3--3--3-.|-----------------------------------0-0-0-0--

--------------------------------|-0-0-0-0-0-0--3--3--3--0-0-0-0-0-0---------3

---------------------------------------------|-------------------------------

----------------------------------7-7-7-7\--.|.------------------------------

--------------------------------------------.|.--0-0-0-0-0-0-0-0-0-0-0-0-0-0-

-2-0-0-0-0-0-0--3--3--3--0-0-0-0-------------|-------------------------------

-------------------------------------------------------------------|---------

------------------------------------------------------------------.|.--------

-0-0-0-0-0-0-0-3-2-3-0-0-0-0-0-0-0-0-0-0-0-0-0-0-0-0-0-0--3--3--3-.|.--------

-------------------------------------------------------------------|--0-0-0-0

----------------------------------------|------------------------------------

---------------------------------------.|------------------------------------

---------------------------0-0-0-0-----.|-3--3--3-3--3--3--3-3--3--3--3-3--3-

-0-0--3--3--3--0-0-0-0-0-0---------3-2--|------------------------------------

-----------------------------------------------------------------------------

--------------------------4-4-4-5-5-5-7-7-7-6-5-4----------------------------

-3--3--5--5--5-5--5--5--5-------------------------6--6--6-6--1--1--1-1--3--3-

-----------------------------------------------------------------------------

--------------------------------------5-5-5-3-2------------------------------

--------------------------3-3-3-5-5-5------------5---------------------------

-5--3--3--3-3--3--3--3-3----------------------------3--3--3-3--3--3--3-3--3--

-----------------------------------------------------------------------------

-----------------------------------------------------------------------------

------------------------------------4-4-4-5-5-5-7-7-7-6-5-4------------------

-3--3-3--3--3--3--5--5--5-5--5-5--5-------------------------6--6--6-6--1--1--

-----------------------------------------------------------------------------

------------------------------------------------------------|----------------

------------------------------------------------------------|.-5-4-0-5-4-0-5-

-1-1--3--3--5--3--3--3-3--3--3--3-3--3--3--3-3-3-3-3-3-3-3--|.---------------

------------------------------------------------------------|----------------

-----------------------------------------------------------------------------

-4-0-5-4-0-5-4-0-5-4-0-5-4-0--0--7-5-0-7-5-0-7-5-0-7-5-0-7-5-0-7-5-0-7-5-0--0

-----------------------------------------------------------------------------

-----------------------------------------------------------------------------

----------------------------------------------------------------------------|

---------------------------------------------------------------------------.|

-6--6--6-6--1--1--1-1--3--3--5--3--3--3-3--3--3--3-3--3--3-3-3-3-3-3-3-3-3-.|

----------------------------------------------------------------------------|

|----------------------------------------------------------------------------

|.-5-4-0-5-4-0-5-4-0-5-4-0-5-4-0-5-4-0-5-4-0--0--7-5-0-7-5-0-7-5-0-7-5-0-7-5-

|.---------------------------------------------------------------------------

|----------------------------------------------------------------------------

-------------------|---------------------------------------------------------

-0-7-5-0-7-5-0--0-.|.---------------9------7----------------------9----------

------------------.|.7-7-7-10-10-10---10-9---10-9--7-7-7-10-10-10---10-9-9-10

-------------------|---------------------------------------------------------

Play 8 times

-----------------------------------------------------------------------------

--------------------9------7----------------------9---------------------5-5-5

-12--7-7-7-10-10-10---10-9---10-9--7-7-7-10-10-10---10-9-9-10-12--3-3-3------

-----------------------------------------------------------------------------

-5-5-5-4---------------------7-7-7-6-----------------------------------------

---------5------------7-7-7----------7--------------------9------7-----------

-----------5---5-5-5-------------------7---7-7-7-10-10-10---10-9---10-9-7-7-7

-----------------------------------------------------------------------------

--------------------------|--------------------------------------------------

----------9--------------.|--------------------------------------------------

-10-10-10---10-9-9-10-12-.|-6--6--6-6--6--6--6-6--6--6--6-6-6-6-6-6-6-6--6--6

--------------------------|--------------------------------------------------

-----------------------------------------------------------------------------

-----------------------------------------------------------------------------

-6-6--6--6--6-6--6-6-6-6-6-6-6-6-6-6-6-6--8--8--8-8--8--8--8-8--8--8--8-8-8-8

-----------------------------------------------------------------------------

--------------------------------10-10-10-10-10-10-10-10-10-10-10-10----------

-----------------------------------------------------------------------------

-8-8-8-8--8--8--8-8--8--8--8-8---------------------------------------6--6--6-

-----------------------------------------------------------------------------

-----------------------------------------------------------------------------

-----------------------------------------------------------------------------

-6--6--6--6-6--6--6--6-6-6-6-6-6-6-6--6--6--6-6--6--6--6-6--6-6-6-6-6-6-6-6--

-----------------------------------------------------------------------------

-----------------------------------------------------------------------------

-------------------------------------------------------------------6-6-6-8-8-

-8--8--8-8--8--8--8-8--8--8--8-8-8-8-8-8-8-8--8--8--8-8--8--8--8-8-----------

-----------------------------------------------------------------------------

-----------------------------------------------------------------------------

-8-10-10-10-10\--------------------------------------------------------------

------------------0-0-0-0-0-0-0-0-0-0-0-0-0-0-0-0-0-0-0-0-0-3-2-3-0-0-0-0-0-0

-----------------------------------------------------------------------------

-----------------------------------------------------------------------------

-----------------------------------------------------------------------------

-0-0-0-0-0-0-0-0-0-0-0-0--3--3--3--0-0-0-0-0-0-0-0-0-0-0-0-0-0-0-0-0-0-0-0-0-

-----------------------------------------------------------------------------

---------------------------------------------------|-------------------------

---------------------------------------------------|.------------------------

-3-2-3-0-0-0-0-0-0-0-0-0-0-0-0-0-0-0-0-0-0--3--3--3|.------------------------

---------------------------------------------------|--0-0-0-0-0-0--3--3--3--0

-------------------------------------------------------------------|---------

----------------------------------------------------------7-7-7-7-.|---------

-----------0-0-0-0------------------------------------------------.|-3--3--3-

-0-0-0-0-0---------3-2--0-0-0-0-0-0--3--3--3--0-0-0-0-0-0----------|---------

-----------------------------------------------------------------------------

-------------------------------------------------4-4-4-5-5-5-7-7-7-6-5-4-----

-3--3--3--3-3--3-3-3-3-3-3--5--5--5-5--5--5--5-5-------------------------6--6

-----------------------------------------------------------------------------

------------------------------------------------------------5-5-5-3-3-3------

-----------------------------------------------3-3-3--5-5-5-------------5-3--

-6-6--1--1--1-1--3--3--5--3--3--3-3--3--3--3-3------------------------------3

-----------------------------------------------------------------------------

-----------------------------------------------------------------------------

------------------------------------------------------4-4-4-5-5-5-7-7-7-6-5-4

-3--3-3--3--3--3-3--3-3-3-3-3-3--5--5--5-5--5--5--5-5------------------------

-----------------------------------------------------------------------------

--------------------------------------5-------5-5-5-------5-5-5-------5------

-----------------------------------------------------------------------------

-6--6--6-0--1--1--1-1--3--3--5--3-3-3---3-3-3-------3-3-3-------3-3-3---3-3-3

-----------------------------------------------------------------------------

-5-5-5-------5-5-5-------5-5-5-------5--||

----------------------------------------||

-------3-3-3-------3-3-3-------3-3-3----||

----------------------------------------||

Get this song at:  amazon.com sheetmusicplus.com

Share your thoughts

0 Comments found