Iron

Iron - Maiden - Lord of the Flies guitar tab

Lord of the FLies Rhythm guitar tab- THIS IS FOR RHTYHM GUITAR

(BTW those people commenting on this tab asking for the intro and solo, how about learn to read, it clearly says RYTHM guitar NOT LEAD GUITAR parts ok)

This is what Dave would play during this song, while Janick would play the lead guitar parts, ive tabbed the lead guitar out on a seperate tab-heres the link-http://www.mxtabs.net/tab_versions.php?path=Guitar,l,25249,Lord+Of+The+Flies+-janick+Gers+Lead,Iron+Maiden,194994

Lord of the FLies Rhythm guitar tab- THIS IS FOR RHTYHM GUITAR

(play along with bass)

Lead Guitar intro

Bass, rhythm guitar and drums enter (00:06)

E|-------------------|

B|-------------------|

G|-------------------|

D|-------------------|

A|-2~---2~---2~---2~-|

E|-0~---0~---0~---0~-|

Rest until Verse

Verse- "I dont care for this world anymore"

E|-----------------------------------------|

B|-----------------------------------------|

G|-----------------------------------------|

D|-----------------------------------------|

A|-4--------------------------------2------| x 6

E|-2-22-2-22-2-22-2-22-2-22-2-22-2--0-0-00-|

Pre chorus- (Same as lead guitar) "I found that I like this living in danger"

E|---------------------------------------------------------------------------------------|

B|---------------------------------------------------------------------------------------|

G|-7~----9~--9x9-9--7~----11~--11-11-11-9--7~----9~--9x9-9--7~---------------------------|

D|-7~----9~--9x9-9--7~-----9~--11-11-11-9--7~----9~--9x9-9--7~----7-77-77----7-77-77-777-|

A|-5~----7~--7x7-7--5~-----9~---9--9--9-7--5~----7~--7x7-7--5~----7-77-77----7-77-77-777-|

E|----------------------------------------------------------------5-55-55----5-55-55-555-|

(1st pre chorus has this extended bit at

the end where they play this )

Verse x 4 "I dont want existence to end"

2nd pre chorus- (Same as lead guitar) " I like all these mixed emotions and anger"

E|------------------------------------------------------------------------|

B|------------------------------------------------------------------------|

G|-7~----9~--9x9-9--7~----11~--11-11-11-9--7~----9~--9x9-9--7~------------|

D|-7~----9~--9x9-9--7~-----9~--11-11-11-9--7~----9~--9x9-9--7~----7-77-77-|

A|-5~----7~--7x7-7--5~-----9~---9--9--9-7--5~----7~--7x7-7--5~----7-77-77-|

E|----------------------------------------------------------------5-55-55-|

Chorus- (same as lead guitar) "Saints and Sinners, something within us"

E|--------------------------------------------------|

B|--------------------------------------------------|

G|-11~--------7~----------------------9~---777-9-11-|

D|-11~--------7~---------7~-----------9~---777-9-11-| x 2

A|--9~--------5~---------7~-----------7~---555-7--9-|

E|-----------------------5~-------------------------|

then -

E|-------------------|

B|-------------------|

G|-------------------|

D|-------------------|

A|-4~---4~---4~---4~-|

E|-2~---2~---2~---2~-|

rest until guitar solo

underneath janicks solo-

E|----------------------------------------|

B|----------------------------------------|

G|-11---11-9-7-----9-11~--11-9-----7777-9-|

D|-11~--11-9-7~--7-9-11~--11-9-777-7777-9-|

A|--9~---9-7-5~--7-7--9~---9-7-777-5555-7-| x 2

E|---------------5-------------555--------|

then play chorus 6 times

then end with -

E|---------|

B|---------|

G|---------|

D|---------|

A|-4~---4~-|

E|-2~---2~-|

Get this song at:  amazon.com sheetmusicplus.com

Share your thoughts

0 Comments found