Iron

Iron - Maiden - Lord of the Flies bass tab

Tab explanations

-----------------------------------------------------

> Forcefully | / Slide up

. Staccatto | \ Slide down

h Hammer-on/ pull off | : Harmonic | ~ slight bend

-----------------------------------------------------

Lord of the Flies ( Harris/Gers )

( From the album " The X Factor " )

------------|--9------9------9------9--------------9-----------------9-------

------------|--9------9------9------9--------9-7------9--7----9--7-----9-7-9-

------------|--7------7------7------7------7-----7---------7-------7---------

------------|----------------------------------------------------------------

Guitar intro. Bass enters

------------9-------------------9-------------------9----------------9-------

----9-7-------9--7------9--7-------9-7-9-----9-7------9-7-----9--7------9-7-9

--7------7----------7---------7------------7------7--------7-------7---------

-----------------------------------------------------------------------------

---------9------------------9-----------9--9-9-9-9-9---9-9-9-9-9-9-999--9--9-

---9-7-----9--7-----9--7-------9-7-9----9--9-9-9-9-9---9-9-9-9-9-9-999--9--9-

-7-----7---------7-------7--------------7--7-7-7-7-7---7-7-7-7-7-7-777--7--7-

-----------------------------------------------------------------------------

-9-9-9-9--9-9-9-9-9-9--999--9-9-9-9-9--9-9-9-9-9-9--999--9-9-9-9-9--9-9-9-9-9

-9-9-9-9--9-9-9-9-9-9--999--9-9-9-9-9--9-9-9-9-9-9--999--9-9-9-9-9--9-9-9-9-9

-7-7-7-7--7-7-7-7-7-7--777--7-7-7-7-7--7-7-7-7-7-7--777--7-7-7-7-7--7-7-7-7-7

-----------------------------------------------------------------------------

-9--999----|-11----------------------11---------------9----------------|-----

-9--999----|.11----------------------11---------------9---------------.|-----

-7--777----|.-9-9-9-9-9-9-9-9-9-9-9-9-9-9-9-9-9-9-9-9-7-7-7-7-7-7-7-7-.|-----

-----------|-----------------------------------------------------------|-----

end intro Play 6 times

on the 3rd time,

lyrics enter

. .

-7-------------------------------9------------------------5-5--7-------------

-7-------------------------------9------------------------5-5--7-------------

-5-5-5-5-5-5-5-5-5-5-5-5-5-5-5-5-7-7-7-7-7-7-7-7-7-7-7-7--7-7--5-5-5-5-5-5-5-

-----------------------------------------------------------------------------

(. = staccatto)

.

------------------11-------------------11-9-7--------------------------------

------------------11-------------------11-9-7--------------------------------

-5-5-5-5-5-5-5-5-5-9-9-9-9-9-9-9-9-9-9--9-7-5--5-5-5-5-5-5-5-5-5-5-5-5-5-5-5-

-----------------------------------------------------------------------------

. .

---9------------------------9-9--7-------------------------------------------

---9------------------------9-9--7--------------------------------7----------

-5-7-7-7-7-7-7-7-7-7-7-7-7--7-7--5-5-5-5-5-5-5-5-5-5-5-5-5-5-5-5--7-0-0-0-0-0

------------------------------------------------------------------5----------

-----------------------------------------------------|-11--------------------

-----------------------------------------------------|.11--------------------

-0-0-0-0-0-0-0-0-0-0-0-0-0-0-0-0-0-0-0-0-0-0-0-0-0-0-|.-9-9-9-9-9-9-9-9-9-9-9

-----------------------------------------------------|-----------------------

-------------------9-----------------|-7-------------------------------9-----

-------------------9----------------.|-7-------------------------------9-----

-9-9-9-9-9-9-9-9-9-7-7-7-7-7-7-7-7--.|-5-5-5-5-5-5-5-5-5-5-5-5-5-5-5-5-7-7-7-

-------------------------------------|---------------------------------------

Play 4 times

. . . .

------------9-9--7------------------------------11-----------------------11-9

------------9-9--7------------------------------11-----------------------11-9

-7-7-7-7-7--7-7--5-5-5-5-5-5-5-5-5-5-5-5-5-5-5-5-9-9-9-9-9-9-9-9-9-9-9-9--9-7

-----------------------------------------------------------------------------

. .

-7----------------------------------9----------------9-9--7------------------

-7----------------------------------9----------------9-9--7------------------

-5--5-5-5-5-5-5-5-5-5-5-5-5-5-5-5-5-7-7-7-7-7-7-7-7--7-7--5-5-5-5-5-5-5-5-5-5

-----------------------------------------------------------------------------

-------------------------------------|-11-------------------------------7----

-------------7-----------------------|.11-------------------------------7----

-5-5-5-5-5-5-7-0-0-0-0-0-0-0-0-0-0-0-|.-9-9-9-9-9-9-9-9-9-9-9-9-9-9-9-9-5-5-5

-------------5-----------------------|---------------------------------------

"Saints and..." etc.

-----------------------------------------------------------9-----------------

---------------------------7-------------------------------9-----------------

-5-5-5-5-5-5-5-5-5-5-5-5-5-7-0-0-0-0-0-0-0-0-0-0-0-0-0-0-0-7-7-7-7-7-7-7-7---

---------------------------5-------------------------------------------------

. .

-7-7-7-7-9-111111-|-11-------11-------11-------------11----------------11----

-7-7-7-7-9-111111.|-11-------11-------11------11-9------11-9----11-9-----11-9

-5-5-5-5-7--9-9-9.|-9---------9--------9----9------9----------9------9-------

------------------|----------------------------------------------------------

----------------11-----------------11----------------------11----------------

-11-----11-9--------11-9----11-9-------11-9-11------11-9-------11-9---11-9---

------9------9-----------9-------9----------------9------9----------9------9-

-----------------------------------------------------------------------------

-11-------------------11-----------------11----------|-11--------------------

----11-9-11----11-9------11-9----11-9--------11-9-11-|.11--------------------

.-------------9------9---------9--------9------------|.-9-9-9-9-9-9-9-9-9-9-9

-----------------------------------------------------|-----------------------

Guitar solo

. . > > . .

---11-9-7-----------------------9-9-11-----------------------11-9-2----------

---11-9-7-----------------------7-9-11-----------------------11-9-2----------

-9--9-7-5-5-5-5-5-5-5-5-5-5-5-5---7--9-9-9-9-9-9-9-9-9-9-9-9--9-7-0-0-0-0-0-0

-----------------------------------------------------------------------------

(> = accented)

---7---------9---|-11-------------------------------7------------------------

---7---------9--.|.11-------------------------------7------------------------

-0-5-5-5-5-5-7--.|.-9-9-9-9-9-9-9-9-9-9-9-9-9-9-9-9-5-5-5-5-5-5-5-5-5-5-5-5-5

-----------------|-----------------------------------------------------------

. .

-------2-------------------------------9---------------7-7-7-7-9-111111--|-11

-------2-------------------------------9---------------7-7-7-7-9-111111-.|-11

-5-5-5-0-0-0-0-0-0-0-0-0-0-0-0-0-0-0-0-7-7-7-7-7-7-7-7-5-5-5-5-7--9-9-9-.|--9

-------------------------------------------------------------------------|---

Play 6 times

11--------------11-----------------11----------------------11----------------

11------9--11-------11-9----11-9-------11-9-11------9-11-------11-9----11-9--

-9---9--------9---------9--------9----------------9------9-----------9------9

-----------------------------------------------------------------------------

--11----.-.---||

-----11-9-11--||

--------------||

--------------||

Repeat

Get this song at:  amazon.com sheetmusicplus.com

Share your thoughts

0 Comments found