Iron

Iron - Maiden - Look For The Truth bass tab

Tab explanations

-----------------------------------------------------

> Accent | / Slide up

. Staccatto | \ Slide down

h Hammer-on/ pull off | : Repeat

� Harmonic | ~ slight bend

-----------------------------------------------------

Look For the Truth ( Bailey / Gers / Harris)

From the album( " The X Factor " )

-----------------------------------------------------------------------------

-----------------------------------------------------------------------------

------------7----7-9-10----10-9-5----5-3-2----0-2-3----2-3-5----9-10-7-------

-------------------------------------------------------------------------7-0-

Rhythm | begin on cue

Guitar |

enters |

-9----9-11-12----12-11-7----7-5-4----2-4-5----4-5-7----11-12-9---------------

------------------------------------------------------------------9----------

-----------------------------------------------------------------------------

-----------------------------------------------------------------------0-----

|-----9----12----7----4----5-----7-----9------|------------------------------

|.----9----12----7----4----5-----7-----9-----.|------------------------------

|.----7----10----5----2----3-----5-----7-----.|---7--7--7--7----7--7--7--7---

|---------------------------------------------|------------------------------

Play 4 times cresc.

--9---9-9--12----------------------------9---9---9-9--12---------------------

--9---9-9--12--12-----12----9--9-9---12--9---9---9-9--12--12-----12----9--9-

9

--7---7-7--10--12-----12----9--9-9---12--7---7---7-7--10--12-----12----9--9-

9

---------------10-----10----7--7-7---10-------------------10-----10----7--7-7

-----9--9----9---9-9--12----------------------------9---9---9-9--12----------

-12--9--9----9---9-9--12--12-----12----9--9-9---12--9---9---9-9--12--12---12-

-12--7--7----7---7-7--10--12-----12----9--9-9---12--7---7---7-7--10--12---12-

-10-----------------------10-----10----7--7-7---10-------------------10---10-

--------------9----9-9-9-9-9--------------------------------9-9-9-9-9--------

-9--9-9---12--9----9-9-9-9-9--10-10-10-10-10---9-9--10-10---9-9-9-9-9--10-10-

-9--9-9---12--7----7-7-7-7-7--10-10-10-10-10---9-9--10-10---7-7-7-7-7--10-10-

-7--7-7---10-------------------8--8--8--8--8---7-7---8--8---------------8--8-

-------------------------9-9-9-9-9--------------------------------9-9-9-9-9--

-10-10-10--10-9---7--5---9-9-9-9-9--10-10-10-10-10---9-9--10-10---9-9-9-9-9--

-10-10-10--10-9---7--5---7-7-7-7-7--10-10-10-10-10---9-9--10-10---7-7-7-7-7--

--8--8--8---8-7---5--3---------------8--8--8--8--8---7-7---8--8--------------

-------------------------------9--9-9---------------12-12-12-12-12-----------

-10-10-10-10-10--10-9---7--5---9--9-9--12--10--10---12-12-12-12-12--12-12----

-10-10-10-10-10--10-9---7--5---7--7-7--12--10--10---10-10-10-10-10--12-12----

--8--8--8--8--8---8-7---5--3-----------10---8---8-------------------10-10----

--9---9-9------------------7-7-7-7----9--9-9--12---------------------------9-

--9---9-9--12-10-10---5-5--7-7-7-7----9--9-9--12---12----12----9--9-9--12--9-

--7---7-7--12-10-10---5-5--5-5-5-5----7--7-7--10---12----12----9--9-9--12--7-

-----------10--8--8---3-3--------------------------10----10----7--7-7--10----

---9---9-9--12----------------------------9-----9-9-9-9-9--------------------

---9---9-9--12--12-----12----9--9-9---12--9-----9-9-9-9-9--10-10-10-10-10--9-

---7---7-7--10--12-----12----9--9-9---12--7-----7-7-7-7-7--10-10-10-10-10--9-

----------------10-----10----7--7-7---10--------------------8--8--8--8--8--7-

------------9-9-9-9-9---------------------------------9-9-9-9-9--------------

-9--10-10---9-9-9-9-9--10-10-10-10-10--10-9----7--5---9-9-9-9-9--10-10-10-10-

-9--10-10---7-7-7-7-7--10-10-10-10-10--10-9----7--5---7-7-7-7-7--10-10-10-10-

-7---8--8---------------8--8--8--8--8---8-7----5--3---------------8--8--8--8-

-------------------9-9-9-9-9----------------------------------9---9----------

-10---9-9--10-10---9-9-9-9-9--10-10-10-10-10---10-9---7--5----9---9---12--10-

-10---9-9--10-10---7-7-7-7-7--10-10-10-10-10---10-9---7--5----7---7---12--10-

--8---7-7---8--8---------------8--8--8--8--8----8-7---5--3------------10---8-

------12-12-12-12-12--------------9--9-------------------7-7-7-7------9--9-9-

-10---12-12-12-12-12---12--12-----9--9--12-10-10---5--5--7-7-7-7------9--9-9-

-10---10-10-10-10-10---12--12-----7--7--12-10-10---5--5--5-5-5-5------7--7-7-

--8--------------------10--10-----------10--8--8---3--3----------------------

-12----------------------------9---9--9-9--12--------------7---9-----9-------

-12--12-----12----9--9-9---12--7---9--9-9--12--12-----12---7---9-----9-------

-10--12-----12----9--9-9---12--7---7--7-7--10--12-----12---5---7-----7-------

-----10-----10----7--7-7---10------------------10-----10---------------------

|----------------12----5--5---------------------------|----------------12---5

|.--12---12-12---12----5--5--5--5---10-9----------.--.|--12---12--12---12---5

|.--12---12-12---10----3--3--5--5--------12--10--12--.|--12---12--12---10---3

|---10---10-10---------------3--3---------------------|--10---10--10---------

Play 3 times

--5--------------------------------|

--5--5--5---10--9-------9----------|

--3--5--5----------12------12--10--|

-----3--3--------------------------|

| 1. and 3. | 2. and 4.

|----9--9----12-12----12--12----7--7--|------------------|----->--------->--|

|.---9--9----12-12----12--12----7--7--|-5-4-------------.|-10-10----12--12-.|

|.---7--7----10-10----10--10----5--5--|-----7-5-7-5-----.|-10-10----12--12-.|

|-------------------------------------|-------------7-5--|--8--8----10--10--|

Guitar Solos

-2--2---5--5---5--5-------------------------2--2----5--5---------------------

-2--2---5--5---5--5----5--5---7--7---7--7---2--2----5--5---5--5---7--7---7--7

-0--0---3--3---3--3----5--5---7--7---7--7---0--0----3--3---5--5---7--7---7--7

-----------------------3--3---5--5---5--5------------------3--3---5--5---5--5

-2--2---5--5---5--5-------------------------2--2----5--5---------------------

-2--2---5--5---5--5----5--5---7--7---7--7---2--2----5--5---5--5---7--7---7--7

-0--0---3--3---3--3----5--5---7--7---7--7---0--0----3--3---5--5---7--7---7--7

-----------------------3--3---5--5---5--5------------------3--3---5--5---5--5

--9---9-9--12---7---7------------7----9-----9---9-9--12---7---7----------7--9

--9---9-9--12---7---7---9--9-9---7----9-----9---9-9--12---7---7--9--9-9--7--9

--7---7-7--10---5---5---9--9-9---5----7-----7---7-7--10---5---5--9--9-9--5--7

------------------------7--7-7-----------------------------------7--7-7------

--9---9-9--12---7---7------------7----9-----9---9-9--12---7---7----------7--9

--9---9-9--12---7---7---9--9-9---7----9-----9---9-9--12---7---7--9--9-9--7--9

--7---7-7--10---5---5---9--9-9---5----7-----7---7-7--10---5---5--9--9-9--5--7

------------------------7--7-7-----------------------------------7--7-7------

--9---9-9--12---7---7------------7----9-----9---9-9--12---7---7--------------

--9---9-9--12---7---7---9--9-9---7----9-----9---9-9--12---7---7--9---9--9----

--7---7-7--10---5---5---9--9-9---5----7-----7---7-7--10---5---5--9---9--9----

------------------------7--7-7-----------------------------------7---7--7----

ritard.

-7----9--||

-7----9--||

-5----7--||

---------||

Get this song at:  amazon.com sheetmusicplus.com

Share your thoughts

0 Comments found