Iron

Iron - Maiden - Killers bass tab

Killers

by Iron Maiden

from the album Killers

Intro

e e e e e e e e e e e e e e e e e e e e e

||--------------------------|--------------------------|---------------------

||--------------------------|--------------------------|---------------------

||--7-----7-----7-----7-----|--7-----7-----7-----7-----|--5-----5-----3------

||-----0-----0-----0-----0--|-----0-----0-----0-----0--|-----0-----0---------

e q e e e e e e e e e e e e e e e e e e e

--------|--------------------------|--------------------------|--------------

--------|--------------------------|--------------------------|--------------

---2/---|--7-----7-----7-----7-----|--7-----7-----7-----7-----|--7-----7-----

0-------|-----0-----0-----0-----0--|-----0-----0-----0-----0--|-----0--------

e e e e e e e e e e e q e e e e e e e e

---------------|-------------------------|--------------------------||-------

---------------|-------------------------|--------------------------||*------

---7-----7-----|--5-----5-----3-----2/---|--7-----7-----7-----7-----||*------

0-----0-----0--|-----0-----0-----0-------|-----0-----0-----0-----0--||-------

Section A

e e e e e e e e e e e e e e e e e e e e e e

-------------------------|--------------------------|------------------------

-------------------------|--------------------------|------------------------

-7-----7-----7-----7-----|--7-----7-----7-----7-----|--5-----5-----3---------

----0-----0-----0-----0--|-----0-----0-----0-----0--|-----0-----0-----0------

q e e e e e e e e e e e e e e e e e e e e

-----|--------------------------|--------------------------|-----------------

-----|--------------------------|--------------------------|-----------------

2/---|--7-----7-----7-----7-----|--7-----7-----7-----7-----|--7-----7--------

-----|-----0-----0-----0-----0--|-----0-----0-----0-----0--|-----0-----0-----

e e e e e e e e e e q e e e e e e e e

------------|-------------------------|--------------------------||----------

------------|-------------------------|--------------------------||----------

7-----7-----|--5-----5-----3-----2/---|--7-----7-----7-----7-----||----------

---0-----0--|-----0-----0-----0-------|-----0-----0-----0-----0--||----------

Section B

e e e e e e e e e e e e e e e e e e e e e

-------------------------|------------------------------|--------------------

-7-----7-----7-----7--9--|--10-----10-----10-----10-----|--5-----5-----5-----

----0-----0-----0--------|------0------0------0------0--|-----0-----0--------

-------------------------|------------------------------|--------------------

e e e e e e e e e e e e e e e e e e e e e

---------|--------------------------|--------------------------|-------------

---5-----|--7-----7-----7-----7-----|--7-----7-----7-----7--9--|--10---------

0-----0--|-----0-----0-----0-----0--|-----0-----0-----0--------|------0------

---------|--------------------------|--------------------------|-------------

|-- Ending 1 -------------------------------------------

e e e e e e e e e e e e e e e e e e e e e

---------------------|---------------------------|---------------------------

10-----10-----10-----|---5-----5-----5-----5-----|--7-----7-----7-----5------

----0------0------0--|------0-----0-----0-----0--|-----0-----0-----0---------

---------------------|---------------------------|---------------------------

---- |-- Ending 2 ------------------------------------------

e e e e e e e e e e e e e e e e e

----||---------------------------|--------------------------||---------------

7--*||---5-----5-----5-----5-----|--7-----7-----7-----7--5--||*--------------

---*||------0-----0-----0-----0--|-----0-----0-----0--------||*--------------

----||---------------------------|--------------------------||---------------

Section C

e s s e s s e s s e s s e s s e s

-------------------------------------------------|---------------------------

-------------------------------------------------|---------------------------

-7-----7--7--7-----7--7--7-----7--7--7-----7--7--|--7-----7--7--7-----7------

-------------------------------------------------|---------------------------

s e s s e e e e e e e e e e e e e e e e e

------------------------|--------------------------|-------------------------

------------------------|-----5--4-----5--4-----5--|--4-----5--4--5-----5----

7--7-----7--7--7-----0--|--5--------5--------5-----|-----5-----------5-------

------------------------|--------------------------|-------------------------

e e s s e s s e s s e s s e s s e

---|--------------------------------------------------|----------------------

7--|--------------------------------------------------|----------------------

---|--7-----7--7--7-----7--7--7-----7--7--7-----7--7--|--7-----7--7--7-------

---|--------------------------------------------------|----------------------

s s e s s e e e e e e e e e e e e e e e e

---------------------------|--------------------------|----------------------

---------------------------|-----5--4-----5--4-----5--|--4-----5--4--5-------

7--7--7-----7--7--7-----0--|--5--------5--------5-----|-----5-----------5----

---------------------------|--------------------------|----------------------

Section D

e e e s s e s s e s s e s s e s s

------||---------------------------------------------------|-----------------

5--7--||---------------------------------------------------|-----------------

------||---7-----7--7--7-----7--7--7-----7--7--7-----7--7--|--7-----7--7-----

------||---------------------------------------------------|-----------------

e s s e s s e e e e e e e e e e e e e e

---------------------------------|--------------------------|----------------

---------------------------------|-----5--4-----5--4-----5--|--4-----5--4----

7-----7--7--7-----7--7--7-----0--|--5--------5--------5-----|-----5----------

---------------------------------|--------------------------|----------------

e e e e e s s e s s e s s e s s e s

------------|--------------------------------------------------|-------------

5-----5--7--|--------------------------------------------------|-------------

---5--------|--7-----7--7--7-----7--7--7-----7--7--7-----7--7--|--7-----7----

------------|--------------------------------------------------|-------------

s e s s e s s e e e e e e e e e e e e e

------------------------------------|--------------------------|-------------

------------------------------------|-----5--4-----5--4-----5--|--4-----5----

7--7-----7--7--7-----7--7--7-----0--|--5--------5--------5-----|-----5-------

------------------------------------|--------------------------|-------------

Section E

e e e e e e s s e s s e s s e e [e]

---------------||-----------------------------------------------|------------

4--5-----5--7--||-----------------------------------------------|------------

------5--------||---3-----3--3--3-----3--3--3-----3--3--5-----7-|-[7]--------

---------------||-----------------------------------------------|------------

s s e s s e s s e s s e s s e s s e

------------------------------------------|----------------------------------

------------------------------------------|----------------------------------

7--7--7-----7--7--7-----7--7--7-----7--7--|--3-----3--3--3-----3--3--3-------

------------------------------------------|----------------------------------

s s e e [e] s s e s s e s s e s s e

--------------|--------------------------------------------------|-----------

------------5-|-[5]----5--5--5-----5--5--5-----5--5--5-----5--5--|-----------

3--3--3-------|--------------------------------------------------|--3--------

--------------|--------------------------------------------------|-----------

s s e s s e s s e e [e] s s e s s e s

--------------------------------------|--------------------------------------

--------------------------------------|--------------------------------------

3--3--3-----3--3--3-----3--3--5-----7-|-[7]----7--7--7-----7--7--7-----7-----

--------------------------------------|--------------------------------------

s e s s e s s e s s e s s e e [q]

---------------|----------------------------------------------|--------------

---------------|----------------------------------------------|--------------

7--7-----7--7--|--3-----3--3--3-----3--3--3-----3--3--3-----2-|-[2]----------

---------------|----------------------------------------------|--------------

e e e e e e [q] e e e e e e [q] e e

--------------------|-------------------------------|------------------------

--------------------|-------------------------------|------------------------

---2--2--2--0-----2-|-[2]----------2--2--2--0-----3-|-[3]----------3--3------

---------------2----|--------------------------2----|------------------------

to CODA I

to CODA II Section F

e e e e [q] e e e e e e e s s e

-----------|--------------------7------------||--||--------------------------

-----------|--------------5--7-----7--4-----*||--||*------------7--7--7------

3--2--3--5-|-[5]-------------------------5--*||--||*------7------------------

-----------|---------------------------------||--||--------------------------

s s e s s e s s e s s e s s e s

------------------------------------|----------------------------------------

---9--9--9-----10--10--10-----9--9--|--9-----7--7--7-------------------------

------------------------------------|--------------------10--10--10-----9----

------------------------------------|----------------------------------------

s s s e e s s e s s e s s e s s

-----------------|-----------------------------------------------------------

-----------------|-----------7--7--7-----9--9--9-----10--10--10-----9--9-----

10--10p9---------|-----7-----------------------------------------------------

----------10-----|-----------------------------------------------------------

Section G

e s s e s s e Q q e e q e

|----------------------------------------------||---------r-----------r------

|--9-----7--7--7------------------------------*||---------e-----------e------

|--------------------10--10--10---------------*||---------s-----------s------

|-----------------------------------10---------||---3-----t--5--5-----t------

e e s s e s s e e e e q e e q e

---|--------------------------------------------r--|--------r-----------r----

---|--------------------------------------------e--|--------e-----------e----

7--|--7-----5--5--5-----5--5--5-----7-----7-----s--|--------s-----------s----

---|--------------------------------------------t--|--3-----t--5--5-----t----

e e e e e e e e e q e e q e e

---|-----------r--------r--------------r-----|--------r-----------r-----|----

---|-----------e--------e--------------e-----|--------e-----------e-----|----

7--|--7-----5--s-----5--s-----5-----7--s-----|--------s-----------s--7--|----

---|-----------t--------t--------------t-----|--3-----t--5--5-----t-----|----

e s s e s s e e e e q e Q q

------------------------------------------r--|--------r--------------r-------

------------------------------------------e--|--------e--------------e-------

7-----5--5--5-----5--5--5-----7-----7-----s--|--------s--------------s-------

------------------------------------------t--|--3-----t--5-----------t-------

Section H

e s s e s s e s s e s s e s s e

--||---------------------------------------------------|---------------------

--||---------------------------------------------------|---------------------

--||---------------------------------------------------|---------------------

--||---1-----1--1--1-----1--1--1-----1--1--1-----1--1--|--1-----1--1--1------

I_____________________________________________________

s s e e e e [e] e e s s e s s e

-----------------------------|-----------------------------------------------

-----------------------------|-----------------------------------------------

-----------------------------|-----------------------------------------------

---1--1--1-----0-----1-----3-|-[3]----3-----3-----3--3--3-----3--3--3--------

s s e s s e s s e e e e [e] s s e

------|----------------------------------------------|-----------------------

------|----------------------------------------------|-----------------------

------|--------------------------------0-----2-----3-|-[3]----3--3--3--------

3--3--|--3-----3--3--3-----3--3--3-------------------|-----------------------

s s e s s e s s e s s e s s e e e

------------------------------|----------------------------------------------

------------------------------|----------------------------------------------

3--3--3-----3--3--3-----3--3--|--3-----3--3--3-----3--3--3-----2-----3-------

------------------------------|----------------------------------------------

e [e] s s e s s e s s e s s e s s e

--|--------------------------------------------------|-----------------------

--|--------------------------------------------------|-----------------------

5-|-[5]----5--5--5-----5--5--5-----5--5--5-----5--5--|--5-----5--5--5--------

--|--------------------------------------------------|-----------------------

Section I

s s e e e e [e] e e s s e s s e

--------------------------||-------------------------------------------------

--------------------------||-------------------------------------------------

5--5--5-----5-------------||-------------------------------------------------

------------------0-----1-||--[1]----1-----1-----1--1--1-----1--1--1---------

s s e s s e s s e e e e [e] e e

------|----------------------------------------------|-----------------------

------|----------------------------------------------|-----------------------

------|----------------------------------------------|-----------------------

1--1--|--1-----1--1--1-----1--1--1-----0-----1-----3-|-[3]----3-----3--------

s s e s s e s s e s s e s s e e e

------------------------------|----------------------------------------------

------------------------------|----------------------------------------------

------------------------------|--------------------------------0-----2-------

3--3--3-----3--3--3-----3--3--|--3-----3--3--3-----3--3--3-------------------

e [e] s s e s s e s s e s s e s s e

--|--------------------------------------------------|-----------------------

--|--------------------------------------------------|-----------------------

3-|-[3]----3--3--3-----3--3--3-----3--3--3-----3--3--|--3-----3--3--3--------

--|--------------------------------------------------|-----------------------

s s e s s e s s q e q e q [H]

------------------------------|-----------r--------------r-------|-----------

------------------------------|-----------e--------------e-------|-----------

3--3--3-----3--3--3-----3--3--|--5--------s--5-----------s--5----|-[5]-------

------------------------------|-----------t--------------t-------|-----------

Section J

e s s e s s e s s e s s

-----------------||---------------------------------------------------|------

-----------------||---------------------------------------------------|------

------------x\---||---7-----7--7--7-----7--7--7-----7--7--7-----7--7--|------

-----------------||---------------------------------------------------|------

e s s e s s e s s e s s e s s e s s

------------------------------------------------|----------------------------

------------------------------------------------|----------------------------

7-----7--7--7-----7--7--7-----7--7--7-----7--7--|--3-----3--3--3-----3--3----

------------------------------------------------|----------------------------

e s s e s s e s s e s s e s s e e

------------------------|----------------------------------------------------

------------------------|----------------------------------------------------

5-----5--5--5-----5--5--|--7-----7--7--7-----7--7--7-----7--7--7-----5-------

------------------------|----------------------------------------------------

e s s e s s e s s e s s e s s e s

|--------------------------------------------------|-------------------------

|--------------------------------------------------|-------------------------

|--7-----7--7--7-----7--7--7-----7--7--7-----7--7--|--7-----7--7--7-----7----

|--------------------------------------------------|-------------------------

s e s s e s s e s s e s s e s s e s

---------------------------|-------------------------------------------------

---------------------------|-------------------------------------------------

7--7-----7--7--7-----7--7--|--3-----3--3--3-----3--3--5-----5--5--5-----5----

---------------------------|-------------------------------------------------

Section K

s e s s e s s e s s e s s e s s e

---|--------------------------------------------------||---------------------

---|--------------------------------------------------||---7-----7--7--7-----

5--|--7-----7--7--7-----7--7--7-----7--7--7-----7--7--||---------------------

---|--------------------------------------------------||---------------------

s s e s s e e e s s e s s e

---------------------------------|-------------------------------------------

---7--7--7-----7--7--7-----9-----|-----10-----10--10--10-----10--10--10------

---------------------------------|-------------------------------------------

---------------------------------|-------------------------------------------

s s e e e s s e s s e s s e s s

---------------------|--------------------------------------------------|----

---10--10--10-----7--|--5-----5--5--5-----5--5--9-----9--9--9-----9--9--|----

---------------------|--------------------------------------------------|----

---------------------|--------------------------------------------------|----

e s s e s s e s s e e e s s e s s

------------------------------------------------|----------------------------

------------------------------------------------|--7-----7--7--7-----7--7----

------------------------------------------------|----------------------------

5-----5--5--5-----5--5--5-----5--5--5-----3-----|----------------------------

e s s e e e s s e s s e s s

------------------------|----------------------------------------------------

7-----7--7--7-----9-----|-----10-----10--10--10-----10--10--10-----10--10----

------------------------|----------------------------------------------------

------------------------|----------------------------------------------------

e e e s s e s s e s s e s s e s

----------|--------------------------------------------------|---------------

10-----7--|--5-----5--5--5-----5--5--9-----9--9--9-----9--9--|---------------

----------|--------------------------------------------------|---------------

----------|--------------------------------------------------|--5-----5------

Section L

s e s s e e e e q e e q e e e

------------------------------------||---------r-----------r-----|-----------

------------------------------------||---------e-----------e-----|-----------

------------------------------------||---------s-----------s--7--|--7--------

5--5-----5--5--5-----5--5-----3-----||---3-----t--5--5-----t-----|-----------

s s e s s e e e e q e e q e e e

------------------------------------r--|--------r-----------r-----|----------

------------------------------------e--|--------e-----------e-----|----------

5--5--5-----5--5--5-----7-----7-----s--|--------s-----------s--7--|--7-------

------------------------------------t--|--3-----t--5--5-----t-----|----------

e e e e e e e q e e q e e e s s

---r--------r--------------r-----|--------r-----------r-----|----------------

---e--------e--------------e-----|--------e-----------e-----|----------------

5--s-----5--s-----5-----7--s-----|--------s-----------s--7--|--7-----5--5----

---t--------t--------------t-----|--3-----t--5--5-----t-----|----------------

e s s e e e e q e Q q

------------------------------r--|--------r--------------r--------|----------

------------------------------e--|--------e--------------e--------|----------

5-----5--5--5-----7-----7-----s--|--------s--------------s--------|----------

------------------------------t--|--3-----t--5-----------t--------|----------

Section M

e e e e e e e e e e e e e e e e [e] e e e e e e

-------------------------|-------------------------|-------------------------

-------------------------|-------------------------|-------------------------

-2--0--2--0--2--0--2--0--|--2--0--2--0--2--0--2--3-|-[3]-3--3--3--3--3--3----

-------------------------|-------------------------|-------------------------

Section N

e [e] s s e s s e s s e e e s s e

--|--------7--7--7-----7--7--7-----7--7--7--------||-------------------------

--|-----------------------------------------------||-------------------------

5-|-[5]----------------------------------------5--||---7-----7--7--7---------

--|-----------------------------------------------||-------------------------

s s e s s e s s e s s e s s e s s e

------------------------------|----------------------------------------------

------------------------------|----------------------------------------------

7--7--7-----7--7--7-----7--7--|--7-----7--7--7-----7--7--7-----7--7--7-------

------------------------------|----------------------------------------------

e e e e e e e e e e e e e e e e e e s s e

---|--------------------------|--------------------------|-------------------

---|-----5--4-----5--4-----5--|--4-----5--4--5-----5--7--|-------------------

0--|--5--------5--------5-----|-----5-----------5--------|--7-----7--7--7----

---|--------------------------|--------------------------|-------------------

s s e s s e s s e s s e s s e s s e

---------------------------------|-------------------------------------------

---------------------------------|-------------------------------------------

---7--7--7-----7--7--7-----7--7--|--7-----7--7--7-----7--7--7-----7--7--7----

---------------------------------|-------------------------------------------

To Section C

e e e e e e e e e e e e e e e e e

------|--------------------------|--------------------------|

------|-----5--4-----5--4-----5--|--4-----5--4--5-----5--7--|

---0--|--5--------5--------5-----|-----5-----------5--------|

------|--------------------------|--------------------------|

Coda I To Section C

[e] s s e s s e s s e e

|-----7--7--7-------7--7--7-----7--7--7-----------|

|-------------------------------------------------|

|-[5]---------------------------------------5-----|

|-------------------------------------------------|

Coda II

q e e e e e e e s s e s s e s s e

s s

|------------------------------||-------------------------------------------

---------|

|------------------------------||-------------------------------------------

---------|

|---5--------5--5--5--5--5--5--||--7-------7--7--7-----7--7--7-----7--7--7--

---7--7--|

|------------------------------||-------------------------------------------

---------|

e s s e s s e s s e e e e e e e e e e

|-------------------------------------------------|--------------------------|

|-------------------------------------------------|-----5--4-----5--4-----5--|

|--7-----7--7--7-----7--7--7-------7--7--7-----0--|--5--------5--------5-----|

|-------------------------------------------------|--------------------------|

e e e e e e e e q q q e e

|--------------------------|--------------r-----------r-----------------||

|--4-----5--5--5-----5--7--|--------------e-----------e-----------------||

|-----5-----------5--------|--7----\------s-----------s-----------------||

|--------------------------|--------------t-----------t-----------0--0--||

=============================================================================

== TABLATURE EXPLANATION ==

=============================================================================

---------- ----------

----5h8--- Hammeron ----(8)--- Ghost Note

---------- ----------

----5p8--- Pulloff ---8-[8]-- Tie

---------- ----------

----5/8--- Slide Up -----x---- Dead Note

---------- ----------

----5\8--- Slide Down ----------

---------- ||------|| Repeat Start & End

----5~~~-- Vibrato ||*----*||

---------- ||*----*||

---------- ||------||

Rhythm:

w = whole note W = dotted whole

h = half note H = dotted half

q = quarter note Q = dotted quarter

e = eighth note E = dotted eighth

s = sixteenth note S = dotted sixteenth

^ = triplet

Get this song at:  amazon.com sheetmusicplus.com

Share your thoughts

0 Comments found