Iron

Iron - Maiden - Iron Maiden guitar tab

IRON MAIDEN - IRON MAIDEN

N.C.

E---------------0--|-----------------|---------------0--|-----------------|

B------------------|--1--------------|------------------|--1--------------|

G-2-----2p1p0------|----------0--2-0-|-2-----2p1p0------|----------0--2-0-|

D------------------|-----------------|------------------|-----------------|

A------------------|-----------------|------------------|-----------------|

E------------------|-----------------|------------------|-----------------|

E------------------|-----------------|------------------|-----------------|

B-1-------------5--|--1--------------|-1-------------5--|--1--------------|

G-2-----2p1p0---0--|----------0--2-0-|-2-----2p1p0---0--|----------0--2-0-|

D------------------|-----------------|------------------|-----------------|

A------------------|-----------------|------------------|-----------------|

E------------------|-----------------|------------------|-----------------|

[riff A]

Am-I

E---------------0--|-----------------|---------------0--|-----------------|

B---------------1--|--1--------------|---------------1--|-1---------------|

G-2---2--2p1p0--2--|--2-------0--2-0-|-2---2--2p1p0--2--|-2--------0--2-0-|

D-2----------------|--2--------------|-2----------------|-2---------------|

A-0----------------|-----------------|-0----------------|-----------------|

E------------------|-----------------|------------------|-----------------|

[end riff A]

[repeat riff A]

[section 1]

Am 5fr G

Won't you come into my room, I wanna show you all my wares

I just want to see your blood, I just want to stand and stare

See the blood beging to flow as it falls upon the floor

Iron Maiden can't be fought Iron Maiden can't be sought

[repeat riff A]

[repeat riff A]

C G D Am fr5

Oh Well wher-ever wher-ever you are

Iron Maiden's gonna get you no matter how far

see the blood flow watching it shed upon above my head

Iron Maiden wants you for dead.

[end section 1]

[repeat riff A]

[repeat riff A]

[repeat section 1]

[last time only D]

Dead.

D N.C.

E------------------|-------------------------|----------------------------|

B------------------|-------------------------|------------------------1---|

G------------------|-------------------------|----------------0---2-------|

D------------------|---------------0---2---3-|--0---2---3-----------------|

A------------------|--0---2---3--------------|----------------------------|

E------------------|-------------------------|----------------------------|

[riff 2]

Am

E--3----1---0--------------0---------|----------------------------0---1---|

B-(1)-----------------3---------1----|--------0----1----------3-----------|

G-(2)----------------(2)-------------|---2-------------------(2)----------|

D-(2)----------------(2)-------------|--(2)------------------(2)----------|

A-(0)--------------------------------|--(0)-------------------------------|

E------------------------------------|------------------------------------|

[Second guitar play the notes within ()]

[end riff 2]

[repeat riff 2]

[repeat riff 2]

Am7 N.C.[repeat 3 times ] Am 5fr

E-3----------------|------------------------------------|--5--------------|

B-1----------------|------------------------------------|--5--------------|

G-2----------------|------------------------------------|--5--------------|

D-2----------------|--2------0--------------------------|--7--------------|

A-0----------------|----2--0------3------------2--------|--7--------------|

E------------------|------------3-----------2------5--3-|--5--------------|

[repeat section 1]

[END]

Am 5fr [strum as fast as you can]

E---5--------------------------------------------------------------------||

B---5--------------------------------------------------------------------||

G---5--------------------------------------------------------------------||

D---7--------------------------------------------------------------------||

A---7--------------------------------------------------------------------||

E---5--------------------------------------------------------------------||

CHORDS

Am-I Am Am 5fr G C D Am7

E--------0-----5-----3--8----5---3----------------------------------------|

B--------1-----5-----3--8----7---1----------------------------------------|

G---2----2-----5-----4--9----7---2----------------------------------------|

D---2----2-----7-----5--10---7---2----------------------------------------|

A---0----0-----7-----5--10---5---0----------------------------------------|

E--------------5-----3--8-------------------------------------------------|

/ = slide up

\ = slide down

^ = bend up

v = release bend down

h = hammer on

p = pull off

~ = vibrate

_ = hold the bend

_3_ = play as triplets

> = play this tone a little bit harder

Get this song at:  amazon.com sheetmusicplus.com

Share your thoughts

0 Comments found