Iron

Iron - Maiden - Ides Of March bass tab

Ides of March / Wrathchild ( Harris )

( From the album " Killers " )

-----------------------------------------------------------------------------

-----------------------------------------------------------------------------

-7--9-10--0-2-3--3\2---0-----10975---7--9----10-9-7----5~-7-----5--7----9--10

-----------------------------------------------------------------------------

( \ = slide down ) The 1 and 0 ( ~ = slight bend ) Faster

above are a

ten, not

individual notes

-----------------------------------------------------------------------------

-----------------------------------------------------------------------------

-0-2-3----3\2--0----10975---7--9----10-9-7----5~-7----5---7--7-7--7--7-7--7--

-----------------------------------------------------------------------------

Faster

-----------------------------------------------------------------------------

-----------------------------------------------------------------------------

-7-7--7--9--10--10-10--10--10-10--10--10-10---0-2-3--3-3--3--3-3--3--3-3--2-2

-----------------------------------------------------------------------------

-----------------------------------------------------------------------------

-----------------------------------------------------------------------------

-0--0-0--0--0-0--0--0-0--10-9-7--5--5-5--5--5-5--5--5-5--5--7--9--9-9--9--9-9

-----------------------------------------------------------------------------

-----------------------------------------------------------------------------

-----------------------------------------------------------------------------

-9--9-9--10-9-7--7-7--7--7-7--7--7-7--5-5--7--7-7--7--7-7--7--7-7--5-5--7--7-

-----------------------------------------------------------------------------

-----------------------------------------------------------------------------

-----------------------------------------------------------------------------

-7--7--7-7--7--7-7--7--9--10--10-10--10--10-10--10--10-10---0-2-3--3-3--3--3-

-----------------------------------------------------------------------------

-----------------------------------------------------------------------------

-----------------------------------------------------------------------------

-3--3--3-3--2-2--0--0-0--0--0-0--0--0-0---10-9-7--5--5-5--5--5-5--5--5-5--5--

-----------------------------------------------------------------------------

-----------------------------------------------------------------------------

-----------------------------------------------------------------------------

-7--9--9-9--9--9-9--9--9-9--10-9-7--7-7--7--7-7--7--7-7--5-5--7--7-7--7--7-7-

-----------------------------------------------------------------------------

-----------------------------------------------------------------------------

-----------------------------------------------------------------------------

-7--7-7--5-5--7------9--10-----0-2-3------3\2-0---------10-9-7--5----7---9---

-----------------------------------------------------------------------------

---------------------||

---------------------||

-10-9-7----5/7\5-----||

------------------0--||

--------------------------------------------------------0-0---0-2-0----------

------------------------------------------------------------4-------4-0------

---5--7-7-7---------5--7-7-7-----------5-7-7-7-------------------------------

------------0-0-0-0-----------0-0-0-0-----------0-0-0-0----------------------

|--------------------------------------------0-0---0-2-0-----------|---------

|.-----------------------------------------------4-------4-0------.|---------

|.--5-7-7-7--7---5-7-7-7--7---5-7-7-7--7-7------------------------.|--3-3-3-3

|------------------------------------------------------------------|---------

Play 4 times

-----------------------------------------------------------------------------

-----------------------------------------------------------------------------

-2-2-2-2--5-7-7-7-7-7--5-7-7-7-7-5-3-3-3-3--2-2-2-2--5-7-7-7-7-7--5-7-7-7-7-5

-----------------------------------------------------------------------------

-----------------------------------------------------------------------------

-------------------5-5-5-5--4-4---4-------------------------------5-4-0------

-3-3-3-3--2-2-2-2---------------4---5-4---3-3-3-3-2-2-2-2-0-0-0-0------------

-----------------------------------------------------------------------------

---------------------------------------0-0---0-2-0---------------------------

-------------------------------------------4-------4-0-----------------------

-5-7-7-7-7-7--5-7-7-7-7-7--5-7-7-7-7-7------------------5-7-7-7-7-7-7--5-7-7-

-----------------------------------------------------------------------------

-----------------------0-0---0-2-0-------------------------------------------

---------------------------4-------4-0--------------2-0-----0-----0----------

-7-7-7--5-7-7-7-7-7-7---------------------5-5--7-7-------2-----2-----5-5--7-7

-----------------------------------------------------------------------------

-----------------------------------------------------------------------------

-5-6-7-2---0-------------2-0-----0----0-----------.---.-.---.-.----------.---

---------2------5-5-7-7-------2-----2-----3-3-3-3-3-0-3-3-0-3-3--5-5-5-5-5---

---------------------------------------------------------------------------7-

( . = staccatto )

-----------------------------------------------------------------------------

-.-.---.---------------------------------------------------------------------

-5-5---5-5-5-5--7-5---5----5---------------5-7-7-7-7-7--5-7-7-7-7-7--5-7-7-7-

-----7--------------7---7-----7--5--3--0-------------------------------------

---------------7---9-9-9-9-9-777---------------------------------------------

---------5--7--------------------9--7----------------------------------------

--5-6-7--------------------------------7---5-7-7-7-7-7--5-7-7-7-7-7-7--5-7-7-

-----------------------------------------------------------------------------

--------------9------7---------4---------------------------------------------

---------5-7----9-7----7--5--5---3--------------------------------------7-8-9

-7-5-6-7----------------------------5-7-7-7-7-7-7--5-7-7-7--7--7--5-7-7------

-----------------------------------------------------------------------------

-9--9-9-7--------------------------------------------------------0-0---0-2-0-

----------9-7--------------------------------------------------------4-------

---------------9-7------5-7-7-7-7-7--5-7-7-7-7-7--5-7-7-7-7-7-7--------------

--------------------9--------------------------------------------------------

-----------------------------------------------------------------------------

-4-0-----------.---.-.---.-.----------.---.-.----.-.-------------------------

-------3-3-3-3-3-0-3-3-0-3-3--5-5-5-5-5---5-5----5-5---7-5---5----5----------

----------------------------------------7------7-----------7----7----7--5-3-0

-----------------------------------------------------------------------------

---.-.------------------------.-.--------------------------.-.---------------

--02-2--2-5-2--2-5-2-2-0-----02-2--2-5-2--2-5-2-2-0-------02-2--2-5-2--2-5-2-

-------------------------3-0-------------------------3-0---------------------

-----------------------------------------------------------------------------

-----------.-.----------------------------.---------------------------.------

-2-0------02-2--2-5-2--2-5-2-2-0-------24-4--4-7-4--4-7-4-2-0------24-4--4-7-

-----3-0--------------------------3-0-------------------------3-0------------

-----------------------------------------------------------------------------

------------------------.------------------------------.---------------------

-7--4-7-4-2-0--------35-5---5-8-5--5-8-5-2-0--------35-5---5-8-5--5-8-5-2-0--

---------------3-0---------------------------3-0----------------------------3

---------------------------------------------------------------------0-0---0-

-------------------------------------------------------------------------4---

----0--7-5---5---5----------5-7-7-7-7-7--7-5-7-7-7-7-7--5-7-7-7-7-7----------

-0---------7---7---7-5-3-0---------------------------------------------------

-2-0---------------------------------------------0-0----0-2-0----------------

-----4-0----------------------------------------------4-------4-0------------

-----------5-7-7-7-7-7--5-7-7-7-7-7--5-7-7-7-7-7--------------------5-7-7-7-7

-----------------------------------------------------------------------------

----------------------------0-0---0-2-0--------------------------------------

-------------------------0------4--------4-0---------------------------------

-5-7-7-7-7--5-7-7-7-7-7------------------------5-7-7-7-7-7--5-7-7-7-7-7-7--5-

-----------------------------------------------------------------------------

----------------0-0----0-2-0-------------------------------------------------

---------------------4--------4-0--------------------------------------------

-7-7-7-7-7-7-7-----------------------3-3-3-3-3-3-3-3--2-2-2-2-2-2-2---5-7-7-7

-----------------------------------------------------------------------------

-----------------------------------------------------------------------------

-----------------------------------------------------------------------------

-7-7-7-7--5-7-7-7-7-5-3-3-3-3-3-3--2-2-2-2-2-2-2--5-7-7-7-7-7--7--5-7-7-7-7-5

-----------------------------------------------------------------------------

-----------------------------------------------------------------------------

-----------------------------------------------------7-5---------------------

-3-3-3-3-3-3-3-3--2-2-2-2-2-2-2-2--10-10-10-10-9-9-9-----7--3-3-3-3-3-3-3-3--

-----------------------------------------------------------------------------

-------------------------------------------------------------0-0----0-2-0----

-------------5-5--------------------------------------------------4-------4-0

-2-2-2-2-2-2------5---5-7-7-7-7-7--5-7-7-7-7-7--5-7-7-7-7-7------------------

-----------------------------------------------------------------------------

---------------------------------------0-0-----0-2-0-------------------------

--------------------------------------------4--------4-0-0-------------------

-5-7-7-7-7-7--5-7-7-7-7-7--5-7-7-7-7-7----------------------5-5-7-7--7-5-----

--------------------------------------------------------------------------7--

----------------------7------------------------------------------------------

------------------5-7---7----5-0-----------------------------------------.-.-

-5----5--5-5-7-7----------5------5-5-7-7--7-5-----5---5-5----3-3-3-3-3-0-3-3-

----7------------------------------------------7----7------------------------

-----------------------------------------------------------------------------

---.-.-----------.----.-.----.-.---------------------------------------------

-0-3-3---5-5-5-5-5----5-5----5-5---7-5---5---5---------7-5---5---5-----------

--------------------7------7-----------7---7---7-5-3-0-----7---7---7-5-3-0---

------------------------------||

------------------------^-----||

-7-5---5---5------------7\----||

-----7---7---7-5-3-0----------||

( ^ = forcefully )

Get this song at:  amazon.com sheetmusicplus.com

Share your thoughts

0 Comments found