Iron

Iron - Maiden - Holy Smoke guitar tab

Band: Iron Maiden

Song: Holy Smoke

Album: No Prayer For The Dying

standard tuning (E,A,D,G,B,E)

intro

e--------------------------------------------------------

b--------------------------------------------------------

g----1-2-1-4-1-2-1-4-1-2-4-------------------------------

d--2--------------------------1-2-1-4-1-2-1-4-1-2-4------

a---------------------------2----------------------------

e--------------------------------------------------------

e--------------------------------

b--------------------------------

g--------------------------------

d----4-5-4-7-4-------------------

a--5--------------4-5-4-7-4------

e---------------5----------------

e----------------------------------

b----------------------------------

g----1-2-1-4-1-2-1-4-1-2-1-4-2-----

d--2-------------------------------

a----------------------------------

e----------------------------------

e-----------------------------------------------------------------

b-----------------------------------------------------------------

g----1-2-1-4-1-2-1-4-1-2-1-4-2------------------------------------

d--2------------------------------1-2-1-4-1-2-1-4-1-2-1-4-2-------

a-------------------------------2---------------------------------

e-----------------------------------------------------------------

e----------------------------------------

b----------------------------------------

g----------------------------------------

d----4-5-4-7-5-4-------------------------

a--5----------------4-5-4-7-5-4----------

e-----------------5----------------------

e----------------------------------

b----------------------------------

g----1-2-1-4-1-2-1-4-1-2-1-4-2-1---

d--2-------------------------------

a----------------------------------

e----------------------------------

main riff

e---------------------

b---------------------

g--9--7---------------

d--9--7--5--7---------

a--7--5--5--7---------

e--------3--5--------- repeat till chorus

chorus

e---------------------

b---------------------

g--9-----7------------

d--9--5--7--7---------

a--7--5--5--7---------

e-----3-----5--------- repeat 2x

chorus outro

e---------------------------------------------------------------

b---------------------------------------------------------------

g---------------------------------------------------------------

d--2-2-0---0----2-2-0---0----2-2-0---0----2-2-0---0-5-4-2-------

a--------2---2--------2---2--------2---2--------2---------------

e--------------------------------------------------------------- repeat 2x

main riff

chours

chorus outro

e--------------------------------------------------------

b--------------------------------------------------------

g----1-2-1-4-1-2-1-4-1-2-4-------------------------------

d--2--------------------------1-2-1-4-1-2-1-4-1-2-4------

a---------------------------2----------------------------

e--------------------------------------------------------

e--------------------------------

b--------------------------------

g--------------------------------

d----4-5-4-7-4-------------------

a--5--------------4-5-4-7-4------

e---------------5----------------

e----------------------------------

b----------------------------------

g----1-2-1-4-1-2-1-4-1-2-1-4-2-1---

d--2-------------------------------

a----------------------------------

e----------------------------------

sorry I don't know the solo when I learn it I will put it up.

main riff

chorus

chorus outro

the end

Get this song at:  amazon.com sheetmusicplus.com

Share your thoughts

0 Comments found