Iron

Iron - Maiden - Holy Smoke bass tab

Tab explanations

-----------------------------------------------------

> Accent | / Slide up

. Staccatto | \ Slide down

h Hammer-on/ pull off | : Harmonic | ~ slight bend

-----------------------------------------------------

Holy Smoke ( Harris/Dickinson )

( From the album " No Prayer For The Dying" )

--9--------4--------7-----2----9------------7h999-999-99----------9----------

--9--------4--------7-----2----9--------------------------77------9----------

--7--------2--------5-----0----7----7-7-7-7------------------7----7-7-7-7--7-

-----------------------------------------------------------------------------

------------------------4----------------------------------7----------------2

------------------------4----------------------------------7----------------2

-7-7-7--7-7-7-7--7-7-7--2--2-2-2--2-2-2-2--2-2-2-2--2-2-2--5--5-5-5--5-5-5--0

-----------------------------------------------------------------------------

---------------9--------------------9----9-9-9-9-9-------9----------------7--

---------------9------------------9----9-----------9-----9----------------7--

-0-0-0--0-0-0--7--7-7-7--7-7-7-7----------------------7--7--7-7-7--7-7-7--5--

-----------------------------------------------------------------------------

------------------------------------.--.------9----------------7-------------

----------------5--5-5-5--5-5-5--7--7--5--7---9----------------7-------------

-5-5-5--5-5-5---------------------------------7--7-7-7--7-7-7--5--5-5-5--5-5-

-----------------------------------------------------------------------------

------------------------.--.-----9----------------7--------------------------

----5--5-5-5--5-5-5--7--7--5--7--9----------------7----------------5--5-5-5--

-5-------------------------------7--7-7-7--7-7-7--5--5-5-5--5-5-5------------

-----------------------------------------------------------------------------

-----------.--.-----9----------------7------------------------------------.--

-5-5-5--7--7--5--7--9----------------7----------------5--5-5-5--5-5-5--7--7--

--------------------7--7-7-7--7-7-7--5--5-5-5--5-5-5-------------------------

-----------------------------------------------------------------------------

-.-----9---------------------------------7-------------------.-----.--9------

-5--7--9----------------5--5-5-5--5-5-5--7----------------7--7--5--7--9------

-------7--7-7-7--7-7-7-------------------5--5-5-5--5-5-5--------------7--7-7-

-----------------------------------------------------------------------------

" Holy smoke..."

----------------------------7--------------------.-----.---9-----------------

-----------5--5-5-5--5-5-5--7-----------------7--7--5--7---9---------------5-

-7--7-7-7-------------------5--5-5-5--5-5-5----------------7--7-7-7--7-7-7---

-----------------------------------------------------------------------------

----------------7-------------------------------------9----------------------

-5-5-5--5-5-5---7-----------------7---7-7-------5-4---9-----------------5--5-

----------------5--5-5-5--5-5-5-----------------------7--7-7-7--7-7-7--------

-----------------------------------------------------------------------------

-------------7---------------------------------9-----------------7-----------

-5-5--5-5-5--7----------------7---7-7----5-4---9-----------------7-----------

-------------5--5-5-5--5-5-5-------------------7--7-7-7--7-7-7---5--5-5-5----

-----------------------------------------------------------------------------

" Jimmy the reptile..."

------------------------------.--.-----9----------------7--------------------

----------5--5-5-5--5-5-5--7--7--5--7--9----------------7----------------5---

-5-5-5---------------------------------7--7-7-7--7-7-7--5--5-5-5--5-5-5------

-----------------------------------------------------------------------------

-------------------.--.-----9----------------7-------------------------------

-5-5-5--5-5-5---7--7--5--7--9----------------7-----------------5--5-5-5--5-5-

----------------------------7--7-7-7--7-7-7--5--5-5-5--5-5-5-----------------

-----------------------------------------------------------------------------

-------.--.-----9----------------7------------------------------------.--.---

-5--7--7--5--7--9----------------7----------------5--5-5-5--5-5-5--7--7--5--7

----------------7--7-7-7--7-7-7--5--5-5-5--5-5-5-----------------------------

-----------------------------------------------------------------------------

-9---------------------------------7-------------------.-----.--9------------

-9----------------5--5-5-5--5-5-5--7----------------7--7--5--7--9------------

-7--7-7-7--7-7-7-------------------5--5-5-5--5-5-5--------------7--7-7-7--7-7

-----------------------------------------------------------------------------

---------------------7--------------------.-----.---9------------------------

----5--5-5-5--5-5-5--7-----------------7--7--5--7---9---------------5--5-5-5-

-7-------------------5--5-5-5--5-5-5----------------7--7-7-7--7-7-7----------

-----------------------------------------------------------------------------

---------7-------------------------------------9-----------------------------

-5-5-5---7-----------------7---7-7-------5-4---9-----------------5--5-5-5--5-

---------5--5-5-5--5-5-5-----------------------7--7-7-7--7-7-7---------------

-----------------------------------------------------------------------------

--------------------------------------9---------4-----7----2-----9-------5--7

-5-------------------7---7-7----5-4---9---------4-----7----2-----9----7------

----5--5-5-5--5-5-5-------------------7---------2-----5----0-----7-----------

-----------------------------------------------------------------------------

-9-7----999-7h999-9--999--9--9--7-----11-------------------------4-----------

-----9-----------------------------7--11-------------------------4-----------

---------------------------------------9---9-9-9-9-9-9-9-9-9-9---2--2-2-2-2--

-----------------------------------------------------------------------------

Guitar Solo

---------------7-----------------2---------------4------------------4--------

---------------7-----------------2---------------4--------------2-4---4-2-4-2

-2-2-2-2-2-2---5---5-5-5-5-5-5---0--0-0-0-0-0-0--2--2-2-2-2-2-2--------------

-----------------------------------------------------------------------------

----11-----------------------4------------------------7-----------------2----

----11-----------------------4------------------------7-----------------2----

-2---9--9-9-9-9-9-9-9-9-9-9--2--2-2-2-2-2-2-2-2-2-2---5---5-5-5-5-5-5---0--0-

-----------------------------------------------------------------------------

------------4-------------------4-------------------6----------------9-------

------------4-----------------2---4-2-----2---------4--4-4-4-4-4-4---7-7-7---

-0-0-0-0-0--2--2-2-2-2-2-2--2----------4----4--2-----------------------------

-----------------------------------------------------------------------------

Solo 2

-4-------6----------------2-------4--------6---------------9--------4--------

-2--2-2--4--4-4-4-4-4-4---0--0-0--2--2-2---4--4-4-4-4-4-4--7--7-7---2--2-2---

-----------------------------------------------------------------------------

-----------------------------------------------------------------------------

--6----------------2--------4-------6---------------9-------4--------6-------

--4--4-4-4-4-4-4---0--0-0---2--2-2--4--4-4-4-4-4-4--7--7-7--2--2-2---4--4-4-4

-----------------------------------------------------------------------------

-----------------------------------------------------------------------------

---------2-------4--------6----------------9--------4------------------------

-4-4-4---0--0-0--2--2-2---4--4-4-4-4-4-4---7--7-7---2--2-2---7---------------

-------------------------------------------------------------5--5-5-5-5-5-5--

-----------------------------------------------------------------------------

-------7---------------------4-4-4--------------------9----------------7-----

---5-7---7-5----4--------2-2--------4-4-4-2---4-2-----9----------------7-----

-7-----------5--2--2-2-2--------------------4----4-2--7-7-7-7--7-7-7---5--5-5

-----------------------------------------------------------------------------

---------------------------------.--.-----9----------------7-----------------

-------------5--5-5-5--5-5-5--7--7--5--7--9----------------7----------------5

-5--5-5-5---------------------------------7--7-7-7--7-7-7--5--5-5-5--5-5-5---

-----------------------------------------------------------------------------

-------------------.--.-----9----------------7-------------------------------

-5-5-5--5-5-5---7--7--5--7--9----------------7-----------------5--5-5-5--5-5-

----------------------------7--7-7-7--7-7-7--5--5-5-5--5-5-5-----------------

-----------------------------------------------------------------------------

-------.--.-----9----------------7------------------------------------.--.---

-5--7--7--5--7--9----------------7----------------5--5-5-5--5-5-5--7--7--5--7

----------------7--7-7-7--7-7-7--5--5-5-5--5-5-5-----------------------------

-----------------------------------------------------------------------------

-9---------------------------------7-------------------.-----.--9------------

-9----------------5--5-5-5--5-5-5--7----------------7--7--5--7--9------------

-7--7-7-7--7-7-7-------------------5--5-5-5--5-5-5--------------7--7-7-7--7-7

-----------------------------------------------------------------------------

---------------------7--------------------.-----.---9------------------------

----5--5-5-5--5-5-5--7-----------------7--7--5--7---9---------------5--5-5-5-

-7-------------------5--5-5-5--5-5-5----------------7--7-7-7--7-7-7----------

-----------------------------------------------------------------------------

---------7-------------------------------------9-----------------------------

-5-5-5---7-----------------7---7-7-------5-4---9-----------------5--5-5-5--5-

---------5--5-5-5--5-5-5-----------------------7--7-7-7--7-7-7---------------

-----------------------------------------------------------------------------

------------------------------------------------||

-5-------------------7---7-7----5-4--->---------||

----5--5-5-5--5-5-5-------------------7\--------||

------------------------------------------------||

"Ahh"

Repeat

Get this song at:  amazon.com sheetmusicplus.com

Share your thoughts

0 Comments found