Iron

Iron - Maiden - Hollowed Be Thy Name guitar tab

I made this tab as best as i could.

If you see a mistake or have any questions or there are any other

Iron Maiden songs you want me to tab for you please e-mail me at brucklepea@hotmail.com.

You can also e-mail if you want to know what part of the song sounds like

on bass and i'll send you the sound file of me playing it.

Thanks.

Band- Iron Maiden

Album- Number Of The Beast

Song- Hallowed be thy name

> = slide to

~ = let ring

| = pause

h = hammer on

Intro

G |-----------------

D |-----------------

A |----------------- x3

E |-0~-0~-0~-0~-----

Intro part 2

G |------------------

D |------------------

A |-3~-5~-5>7-------- x2

E |-----------0~-0~--

Verse 1

G |-----------------------------------------------------------------------

D |-----------------------------------------------------------------------

A |-7-7-7-7-7-7-7-7-3-3-3-3-3-3-3-3-5-5-5-5-5-5-5-5-7-7-7-7-10-9-7-9-7-5-- x4

E |-----------------------------------------------------------------------

Verse 2

G |---|-----|-----|------------------------------|--

D |---|-----|-----|---2-2-----------0-5-4-2-0-2--|--

A |-7-|---3-|-0-5-|-2-----2-2-3-2-3--------------|-- x2

E |---|-3---|-----|------------------------------|--

Verse 2 part 2

G |----------------------------------------------------------------------------

D |-------------------------------------------------2-2-------------0-5-4-2-0--

A |-2-2-2-2-2-2-2-2-3-3-3-3-3-3-3-3-5-5-5-5-5-5-5-5-----2-2-3-2-3-------------- x2

E |----------------------------------------------------------------------------

Verse 1 x2

Break 2

G |---------4-------------4-----------4-------------4-------------4-----------4-------

D |---4-5-7---7-5-4---4-5---5-4---4-5---5-4---4-5-7---7-5-4---4-5---5-4---4-5---5-4---

A |-7---------------7-----------7-----------3---------------3-----------3------------- x2

E |-----------------------------------------------------------------------------------

Break 3

G |-------------------------------------------------------------------------

D |-------------------------------------------------------------------------

A |-7-7-7-7-7-7-7-7-7-7-7-7-7-7-7-7-5-3-3-3-3-3-3-3-3-3-3-3-3-3-3-3-3-5----- x2

E |-------------------------------------------------------------------------

Verse 1 x4

Break 3 x2

Break4

G |--------------------

D |--------------------

A |-7~---7~---3~---7~--

E |----7----3----7-----

Break 5

G |-----------4-------------------

D |---4-5-4-5---5-4-5-4-5-4-------

A |-7-----------------------3-5--- x4

E |-------------------------------

Solo

G |---------------------------------------------------------------

D |-----------------5-4-------------------------5-4---------------

A |-7-7-7-7-7-7-7-7-----5-3-2---5-5-5-5-5-5-5-5-----5-3-2--------- x6

E |---------------------------3---------------------------3-------

Break 6

G |-----------------------------------------------

D |---------------------------------5-------5-----

A |-7-7-7-7-7-7-7-7-7-7-7-7-7-7-7-7---7-5-7---5--- x3

E |-----------------------------------------------

Break 7

G |-----------------------------------

D |-----------------------------------

A |-7-7-7-7-7-7-7-7-7-7-7-7-7-7-7-7---

E |-----------------------------------

Verse 1 x2

Verse 2 part 2 x2

Verse 1

Outro

G |----------------------------------------------------------

D |----------------------------------------------------------

A |-7-7-7-7-7-7-7-7-7-3-3-3-3-3-3-3-3-5-5-5-5-5-5-5-5-7~-----

E |----------------------------------------------------------

Outro (continued)

G |-------------------------------------------------|------------

D |-------------------------------------------------|------------

A |---5~---3~---5~-7-7-7-7-7-7-7-7-7-7-7-7~-7-7-7-7-|-7-7-7-7>0--

E |-5----3----5-------------------------------------|------------

Please rate this tab and put your comments. Thankyou.

Get this song at:  amazon.com sheetmusicplus.com

Share your thoughts

0 Comments found