Iron

Iron - Maiden - Ghost Of The Navigator guitar tab

e----5----------- ---5---------- ----------------------------5--------

b------8-6-5-6--- -----8-6-5-6-5 ---8-6-5-------8-6-5----------8-6-5-6

g--7-----------5- -7------------ ---------7-5---------7-5-7-----------

d---------------- -------------- -8-----------8-----------------------

a---------------- -------------- -------------------------------------

E---------------- -------------- -------------------------------------

e-------------------------------------------------

b----8-6-5-------8-6-5-------8-6-5-------5-6-8-6-5

g--7-------7-5-7-------7-5-7-------7-5-7----------

d-------------------------------------------------

a-------------------------------------------------

E-------------------------------------------------

e-------------------------------------------------

b----8-6-5-------8-6-5-------8-6-5-------5-6-8-6-5

g--7-------7-5-7-------7-5-7-------7-5-7----------

d-------------------------------------------------

a-------------------------------------------------

E-------------------------------------------------

Get this song at:  amazon.com sheetmusicplus.com

Share your thoughts

0 Comments found