Iron

Iron - Maiden - Genghis Kahn bass tab

Genghis Kahn ( Harris )

( From the album " Killers " )

-----------------------------------------------------------------------------

-0-0-0--7-7-7--5-5-5--4-4-4--2-2-2--0-0-0------------------------------------

-------------------------------------------3-3-3--0-3-5--5--5--5-------------

------------------------------------------------------------------3--3--3----

Intro

-----------------------------------------------------------------------------

-------------------0-0-0--7-7-7--5-5-5--4-4-4--2-2-2--0-0-0------------------

----------3--3--3--------------------------------------------3-3-3--0-3-5--5-

-5--5--5---------------------------------------------------------------------

---------------------------------|-----7-7-7---------------------7-7-7-------

---------------------------------|------------5-7-5--------------------5-7-5-

-5--5--------------------3--3--3-|--0----------------8-10-8---0--------------

-------3--3--3--5--5--5----------|-------------------------------------------

slower

--------7-7-7---------------------7-7-7--------------------------------------

---------------5-7-5---------------------5-7-5-------------------------------

--8---0---------------8-10-8---0-----------------3----0---3-3-3--5-7-5--3-5-3

-----------------------------------------------------------------------------

-----------------------------------------------------------------7-5-0-------

--------------------------------------------------------------5--------------

-0---3-3-3--5-7-5------0--3-3-3--5-7-5--3-5-3--0---3-3-3--5-7-----------0----

------------------3----------------------------------------------------------

--7-7-7-5-0-----------------7-7-7--------------7-7-7-------------------7-7-7-

-------------7-5----------0-------5-7-5------0--------5-7-5----------0-------

------------------8-10-8-----------------8-------------------8-10-8----------

-----------------------------------------------------------------------------

-----------------------------------------------------------------------------

-5-7-5-----------------------------------------------------------------------

-------8----0--3-3-3--5-7-5--3-5-3---0---3-3-3--5-7-5------0---3-3-3--5-7-5--

-------------------------------------------------------3---------------------

--------------------------7-5-0----------------------------------------------

-----------------------5----------0---5-5-5--7---8-8-7-5---8-8-7-5---3-2-----

-5-7-5--0---3-3-3--5-7---------------------------------------------------3---

-----------------------------------------------------------------------------

-----------------------------------------------------------------------------

-0---5-5-5-7---8-8-7-5---8-8-7-5--3-2---0--5-5-5-7--8-8-7-5---8-8-7-5--3-2---

--------------------------------------3------------------------------------3-

-----------------------------------------------------------------------------

-------------------------------|---------------------------------------------

-0--5-5-5-7--8-8-7-5--8-8-7-5--|-0-03-2-0-0--3-2--------------3--3-2-0-0--3-2

-------------------------------|-----------------3-0-0--0-2-3----------------

-------------------------------|---------------------------------------------

Much faster

-----------------------------------------0---------------------------------0-

-0-0--3-2--------------3--3-2-0-0-0-2-3----3-2-0-3--3-2-0-2--3-2-0-0-0-2-3---

----------3-0-0--0-2-3-------------------------------------------------------

-----------------------------------------------------------------------------

-----------------------------------------------------------------------------

-3-2-0-3--3-2-0-2--3-2-0-0--0-3-2-0-0-3-2---------------3--3-2-0-0--3-2-0-0--

-------------------------------------------3-0-0--0-2-3----------------------

-----------------------------------------------------------------------------

-----------------------------------0---------------------------------0-------

-3-2--------------3--3-2-0-0-0-2-3---3-2-0-3--3-2-0-2--3-2-0-0-0-2-3---3-2---

-----3-0-0--0-2-3------------------------------------------------------------

-----------------------------------------------------------------------------

-----------------------------------------------------------------------------

-3-2-0-3--3-2-0-2--3-2-0-0---------------------------------------------------

---------------------------/5--7\--0-0-5-0-0-7-0-0-5-0---0-5-3-0-0--0-5-3----

-----------------------------------------------------------------------------

(/ = slide up)

(\ = slide down)

-----------------------------------------------------------------------------

------------------------------------------0-0-5-0-0-7-0-0-5-0--0-3-2-0-0--0-3

--0-0-5-0-0-7-0-0-5-0---0-5-3-0-0--0-5-3-------------------------------------

-----------------------------------------------------------------------------

-----------------------------------------------------------------------------

-2---------------------------------------------------------------------------

----0-0-5-0-0-7-0-0-5-0---0-5-3-0-0--0-5-3--0-0-5-0-0-7-0-0-5-0---0-5-3-0-0--

-----------------------------------------------------------------------------

-----------------------------------------------------------------------------

-----------------------------------------------0-0-5-0-0-7-0-0-5-0--0-3-2-0-0

-0-5-3--0-0-5-0-0-7-0-0-5-0---0-5-3-0-0--0-5-3-------------------------------

-----------------------------------------------------------------------------

-----------------------------------------------------------------------------

--0-3-2-----------------------------------3-2-0-0--3-2--------------3--3-2-0-

---------0-0-5-0-0-7-0-0-5-0---0-5-3-0-0---------------3-0-0--0-2-3----------

-----------------------------------------------------------------------------

-----------------------------------------------0-----------------------------

-0-0-3-2-0-0-0-3-2------------3--3-2-0-0-0-2-3---3-2-0-3--3-2-0-2--0-3-2-0-0-

-------------------0-0--0-2-3------------------------------------------------

-----------------------------------------------------------------------------

------------0-0------------------------------|-------------------------------

-0--0-0-2-3-----3-2-0-3--3-2-0-2--0-3-2-0-0--|--.--.-------------------------

---------------------------------------------|--5--7--7-7-7----7-7-7---7-7---

---------------------------------------------|-------------------------------

Slower

( . = staccatto)

-----------------------------------------------------------------------------

-5-4-2-0--.-----------------------3-2-0----.------------------------->--.----

----------3--3-3-3---3-3-3---3-3--------3--0--0-0-0----0-0-0---0-0-0-2--3----

-----------------------------------------------------------------------------

(> = accented)

-----------------------------------------------------------------------------

----------------------3-2----------------------------------------------------

-3-3-3--3-3-3---3-3-3-----3--3-2------.---------------------.----------------

----------------------------------3---0--0-0-0--0-0-0--2-0--0--0-0-0--0-0-0--

-----------------------------h---h-------------------------------------------

------.---------------------5-4-5-4--.--------------------3-2----.-----------

------7--7-7-7--7-7-7--7-7-----------3--3-3-3--3-3-3--3-3-----3--0--0-0-0----

-0-0-------------------------------------------------------------------------

(h = hammer-on)

-----------------------------------------------------------------------------

--------------->--.---------------------3-2----------------------------------

-0-0-0--0-0-0--2--3--3-3-3--3-3-3--3-3------3-2-3-2-0-----.------------------

------------------------------------------------------3---0--0-0-0--0-0-0--0-

-----------------------------------------------------------------------------

-----------------------------------------------------.-----------------------

-----h---h---2----h----.---------------------->-->---7--7-7-7--7-7-7--7-7----

-0--3-2-3-2----3-2-3---0--0-0-0--0-0-0--0-0---0--0---------------------------

Lead guitar enters

---h-h-----------------------------------------------------------------------

-/5-4-5-.---------------------3-2----.----------------------->--.------------

--------3--3-3-3--3-3-3--3-3------3--0--0-0-0--0-0-0--0-0-0--2--3--3-3-3--3-3

-----------------------------------------------------------------------------

-----------------------------------------------------------------------------

---------3-2-----------------------------------------------------------------

-3---3-------3-2-3-2------.-------------------------.--------------------->--

---------------------3-0--0--0-0-0--0-0-0--0-0-0-0--0--0-0-0--0-0-0--0-0--0--

---------------------------h-h-----------------------------------------------

----.--------------------/5-4-5--.--------------------3-2-----.--------------

->--7--7-7-7--7-7-7--7-7---------3--3-3-3--3-3-3--3-3----3-2--0--0-0-0--0-0-0

-0---------------------------------------------------------------------------

-----------------------------------------------------------------------------

------->--.-------------------3-2--------------------------------------------

-0-0-0-2--3--3-3-3--3-3-3--3------3-2-3-2------.---------------------->-->---

------------------------------------------3-0--0--0-0-0--0-0-0--0-0---0--0---

-----------------------------------------------------------------------------

------------------------------->--------->---------->-------->------------>--

-.--------------------->-->----7---------5----------3--------2------0-2---7--

-0--0-0-0--0-0-0--0-0--0--0-----------------------------------------------0--

-----------------------------------------------||

----->------->------>--------------------------||

-----5-------3------2------0-2--->-------------||

---------------------------------0-------------||

Rythm guitar

plays outro

Get this song at:  amazon.com sheetmusicplus.com

Share your thoughts

0 Comments found