Iron

Iron - Maiden - Flash Of The Blade bass tab

Intro X2

G|----------------------------------------|

D|----7-~----8-~---------7-~--------------|

A|----5-~----6-~--10-~---5-~--8-~--10-~---|

E|-----------------8-~--------6-~---8-~---|

Riff A X2

G|--------------------------------------------------------------------------|

D|--------------------------------------------------------3-2-0-------------|

A|---0-0-0-0-0-0-0-0-3-3-3-3-3-3-2-2-2-2-2-2-1-1-1-1-1-1--------3-2-1-0-----|

E|--------------------------------------------------------------------------|

Chorus X2

G|-----------------------------------9------------------------------------------|

D|---------------------------6-6-7-9---9-7-6------------------------------------|

A|---5-5-5-5-5-5-5-5-4-4-5-7-----------------7-3-3-3-3-3-3-3-3-2-2--0--2--0-----|

E|---------------------------------------------------------------------------3--|

G|-----------------------------------9---9--------------------------------------|

D|---------------------------6-6-7-9---9---7-6----------------------------------|

A|---5-5-5-5-5-5-5-5-4-4-5-7-------------------3-3-3-3-3-3-3-3-2-2--0--2--0-----|

E|---------------------------------------------------------------------------3--|

Riff B X4

G|--------------------------------------------------------------------------------|

D|--------------------------------------------------------------------------------|

A|---5-5-5-5-5-5-5-5-5-5-5-5-6-6-6-6-6-6-6-6-6-6-6-6------------------------------|

E|---------------------------------------------------8-8-8-8-8-8-8-8-8-8-8-8-8----|

G|-------------|---------------------------------9-------------------------------------------|

D|--Riff-A-X2--|-------------------------6-6-7-9---9-6-7-6-----------------------------------|

A|-------------|--5-5-5-5-5-5-5-5-4-4-5-7-------------------7-3-3-3-3-3-3-3-3-2-2-0-2-0-2----|

E|-------------|--------------------------------------------------------------------------3--|

G|-----------------------------------9---------------------------------------|

D|---------------------------6-6-7-----9-6-7-6-------------------------------|

A|---5-5-5-5-5-5-5-5-4-4-5-7-------------------3-3-3-3-3-3-3-3-2-2-0-2-0-2---|

E|---------------------------------------------------------------------------|

Riff C X4 (Very Quick!!!!)

G|---------------------------------------|------------------------------------------|

D|---7-7-7-7-9-9-10-7-7-7-7-9-9-10-9-7-7-|-6-6-6-7-9-7-6---12-10-9----10-9----------|

A|---------------------------------------|-------------------------12------12-10----|

E|---------------------------------------|------------------------------------------|

G|---------7-----7-------7-----7----7-----7----7-----7-----9-----9----9-9-9-9-9-9-7--------|

D|------------7-------------7----------7----------7-----------9---------------------9-8-7--|

A|---5--5----------5--5----------5----------5-----------7----------7-----------------------|

E|-----------------------------------------------------------------------------------------|

G|-------12------12------12------12------12------12------12------12---|

D|-----------12--------------12--------------12--------------12-------|

A|---10--------------10--------------10--------------10---------------|

E|--------------------------------------------------------------------|

G|------7-----7----7-----7-----7-----7-4-5-7-5-4-------7-----7-----7-----7-----7-----7---|

D|---------7----------7-----------7--------------5--------7-----------7-----------7------|

A|---5----------5-----------5-----------------------5-----------5-----------5------------|

E|---------------------------------------------------------------------------------------|

G|---7-5---5-4----9-----9-----9-----9-----9-9-7---7-----------------|

D|-------7-----------9-----------9--------------9---9--7---5--------|

A|-------------7-----------7-----------7-----------------7---7--5---|

E|------------------------------------------------------------------|

G|------------------------------------------7-----7----7-----7----7-----7----7-----7---|

D|------5-----5-----5-----5-----5-----5--------7----------7----------7----------7------|

A|---------5-----------5-----------5-----5-----------5----------5---------5------------|

E|---3-----------3-----------3---------------------------------------------------------|

Riff C X3

G|----------------------------------|-----------------|

D|----------------------------------|---Chorus X3-----|

A|--------------------------7-------|-----------------|

E|---5----------7-------------------|-----------------|

Outro

G|-------------------------------------------------------------|

D|-------------------------------------------------------------|

A|---5-5-5-5-5-5-5-5-5-5-5-5-6-6-6-6-6-6-6-6-------------------|

E|-------------------------------------------8-8-8-8-8-8-8-8---|

Get this song at:  amazon.com sheetmusicplus.com

Share your thoughts

0 Comments found