Iron

Iron - Maiden - Face in the Sand guitar tab

Intro (clean) repeat x2

e------------------------------------------------------------------------------------------------------------

b-----------------------------------------------------------------------------------------------------------

g---------------------7---------------------------------------------------------------------------------------

d---------9--9--9--9--------9---7-----------7-9--7-------------------------------------------------------------------

a---------------------------------------10-----------10--9-------------------------------------------------------

E------------------------------------------------------------------------------------------------------------

e-----------------------------------------------------------------------------------------------------------

b----------------------------------------------------------------------------------------------------------

g---------------7--------------------------------------------7-------------------------------------------------

d---9-----------5---------------5------7--------9------------5---------5--------7-----------------------------------

a---7---------------------------3------5--------7----------------------3--------5---------------------------------

E------------------------------------------------------------------------------------------------------------

Repeat Intro x1 Then.....

-----------------------------------------------------------------------------------------------------------

-----------------------------------------------------------------------------------------------------------

------------------------------------------------------------------------------------------------------------

----------5--5-7---7/9-----7-------------5---4----------------------------------------------------------------------

----7--9-----------------------10-9--5---------------------------------------------------------------------------

------------------------------------------------------------------------------------------------------------

----------------------------------------------------------------------------------------------------------

-----------------------------------------------------------------------------------------------------------

------------------7------------------------------------------------------------------------------------------

-------9----------5--------5---------7---------2------5---------------7-------------------------------------------

-------7-------------------3---------5---------0------3---------------5------------------------------------------

------------------------------------------------------------------------------------------------------------

----------------------------------------------------------------------------------------------------------

-----------------------------------------------------------------------------------------------------------

------------------------------------------------------------------------------------------------------------

---------5-4---------5--4-------5--4-------5---4------5--4-------5--4-------------------5---4----------------------------

----7-----------7------------7----------5-----------7---------7---------5-----------------------------------------

------------------------------------------------------------------------------------------------------------

let ring.....

----------------------------------------------------------------------------------------------------------

------------3-----------------------------------------------------3------------------------------------------

----------0-----------------------------------------------------0---------------------------------------------

--------4-----------------------------------------------------4----------------------------------------------

-----------------------------------------------------------------------------------------------------------

----------------------------------------------------0----0----------------------------------------------------

P.M..............

----------------------------------------------------------------------------------------------------------

-----------------------------------------------------------------------------------------------------------

------------------------------------------------------------------------------------------------------------

-----------------------------------------------------------------------------------------------------------

-----------------------------------------------------------------------------------------------------------

-0-0-0-0-0-0------0-0-0-0-0--0-0-0-0-0-0-0-0-0-0-0-0-0-0-0-0-0-0-0-0-0-0-------------------------------------------------------------------

----------------------------------------------------------------------------------------------------------

-----------------------------------------------------------------------------------------------------------

------------------------------------------------------------------------------------------------------------

------------------------------------------------------repeatx2-----------------------------------------------------

-----12---17-------10---16-------9-----10--\--------------------------------------------------------------------------

-----14---15-------12---14-------10----12---\----------------------------------------------------------------------------

----------------12------------------------------------------------------------------------------------------

----------------12------------------------------------7-------------------------------------------------------

-------------12-------------------------------------7----------------------------------------------------------

---------12---------------------------------------7-----------------------------------------------------------

-----------------------------------------------------------------------------------------------------------

------12------------------------------------------------------------------------------------------------------

----------------------------------------------------------------------------------------------------------

-----------------------------------------------------------------------------------------------------------

------------------------------------------------------------------------------------------------------------

-----------------------------------------------------------------------------------------------------------

-----------------------------------------------------------------------------------------------------------

0-0-0-0-0-0-0-0-0-0-0-0-0-0-0-0-0-0-0-0-0-0-0-0-0-0-0-0-0-0-0-0-0-0-0-0-0-0-0-0-0-0-0-0-0-0-0-0-0-0-0-0-0-0

Get this song at:  amazon.com sheetmusicplus.com

Share your thoughts

0 Comments found