Iron

Iron - Maiden - Dance Of Death guitar tab

Song: Dance of death

Band: Iron maiden

Album: Dance of death

INTRO

E-------------------------------------------------

B-------------------------------------------------

G-------------------------------------------------

D----9---9------12---12------7---7------5---5-----

A--7---7---7--9----9----9--5---5---5--3---3---3---

E-------------------------------------------------

E-----------------------------------

B-----------------------------------

G-----------------------------------

D----5---5------7---7------9---9----

A--3---3---3--5---5---5--7---7---7--

E-----------------------------------

INTRO (SOLO)

E---------------------------------------------------

B-----------------------------12--12--13--12--7--5--

G--9--9-11--11--12--14--12--9-----------------------

D---------------------------------------------------

A---------------------------------------------------

E---------------------------------------------------

Get this song at:  amazon.com sheetmusicplus.com

Share your thoughts

0 Comments found