Iron

Iron - Maiden - Children Of The Damned bass tab

Tab explanations

-----------------------------------------------------

> Accent | / Slide up

. Staccatto | \ Slide down

h Hammer-on/ pull off | : Repeat

� Harmonic | ~ slight bend

-----------------------------------------------------

Children of the Damned ( Harris )

( From the album " Number of the Beast " )

-------9----------------------------------------------------------9----------

------9----9----5----0--5h4h5h4--------------3-------5----------9---9---5----

--7--7--------------------------5---5-5----3---3---5---5---------------------

--0--------------------------------------------------------0-----------------

Intro

-------------------------------------------9---------------------------------

-0--5h4h5h4-------------3------5----------9----9----5----0---5h4h5h4---------

------------5---5-5---3---3--5---5-------7---------------------------5----5-5

------------------------------------0----------------------------------------

------------------------9----------------------------------------------------

----3-------5----------9---9----5---0---5h4h5h4--------------3-------5-------

--3---3---5---5-------7--------------------------5---5-5---3---3---5---5-----

------------------0----------------------------------------------------------

End Intro

----------------------------------------------7------------------------------

-----------------------------------5-------7-----7--5------------------------

-7-7---7-7---2---0-2-3---3-3----5-------7-------------5-------7-7---2-2-2--0-

-0--------------------------------------------------------0------------------

-------------------------7---------------------------------------------------

------------------5----7---7--5----------------------------------------5---5-

-2-3--3-3---5--7-----------------5-------7-7\--22-2---0-2-3---3-3----5---7---

-------------------------------------0---------------------------------------

-------7---------------------------------------------------------------------

--5-7-----7------------------------------------------------------------------

-----------------7\---2-2---0-2-3---3-3---5-5-5--0--0-0-0-------7--7---2-2---

---------------0------------------------------------------3-0----------------

-----------------------------------------------------------------------------

--------------------------------------------------------------------.--------

-0-2-3---3-3---5-5-5--0--0-0-0----------7--7---2-2--0-2-3--3-3---5--5---0-0-0

--------------------------------3--0-0---------------------------------------

-----------------------------------------------------------------------------

-----------------------------------------------------------------------------

---------7--7---2-2--0-2-3--3-3--5-5-5--0--0-0-0----------7--7---2--2---0-2-3

-3--0-0-------------------------------------------3--0-0---------------------

--------------------------------------------------------------------7--------

----------.-------------------------------------------------5----7----7-5----

-3-3---5--5---0-0-0------------7-7--2-2--2---0-2-3--3-3---5----7-----------5-

---------------------3---0-0-------------------------------------------------

---------------------------------------------7-------------------------------

---------------------------------------5---7---7--5--------------------------

-------7-7\--2-2--2--0-2-3--3-3----5-7---------------5---------7\----2-2--2--

--0-0-----------------------------------------------------0-0----------------

---------------------------------7-------------------------------------------

------------------5----5---5--7----7-----------------------------------------

-0-2-3---3-3----5----7--------------------7\---2-2---2----0-2-3--3-3---5-5-5-

---------------------------------------0-------------------------------------

-----------------------------------------------------------------------------

-----------------------------------------------------------------------------

-0--0-0-0-----------7-7\--2--2---0-2-3---3-3---5-5-5--0--0-0-0----------7-7\-

-----------3---0-0----------------------------------------------3--0-0-------

-----------------------------------------------------------------------------

------------------------.----------------------------------------------------

-2-2---0-2-3---3-3---5--5---0-0-0----------7--7--2-2-2--0-2-3--3-3---5-5-5--0

-----------------------------------3--0-0------------------------------------

-------------------------------------------->->->----------------------------

--------------------------------------------7-5-4-->->-----------------------

-0-0-0----------7-7---2-2-2---0-2-3--3-3-----------5-7---777-777-777-777-777-

--------3--0-0---------------------------------------------------------------

Slightly faster

-----------------------------------------------------------------------------

-----------------------------------------------------------------------------

-777-777--0--555-555-555-555-555-555-555--0--333-333-333--0--555-555-555--0--

-----------------------------------------------------------------------------

-----------------------------------------------------------------------------

-----------------------------------------------------------------------------

-777-777-777-777-777-777-777--0--777-777-777-777-777-777-777--0--555-555-555-

-----------------------------------------------------------------------------

"Now it's burning his hands..."

-----------------------------------------------------------------------------

-----------------------------------------------------------------------------

-555-555-555-555--0--333-333-333--0--555-555-555--0--777-777-777-777-777-777-

-----------------------------------------------------------------------------

-----------------------------------------------------------------------------

-----------------------------------------------------------------------------

-777--0--777-777-777-777-777-777-777--0--555-555-555-555-555-555-555--0--333-

-----------------------------------------------------------------------------

-----------------------------------------------------------------------------

-----------------------------------------------------------------------------

-333-333--0--555-555-555--0--777-777-777-777-777-777-777--0--777-777-777-777-

-----------------------------------------------------------------------------

-----------------------------------------------------------------------------

-----------------------------------------------------------------------------

-777-777-777--0--555-555-555-555-555-555-555--0--333-333-333--0--555-555-555-

-----------------------------------------------------------------------------

-----------------------------------------------------------------------------

-----------------------------------------------------------------------------

-0--777-777-777-777-777-777--0--7--7-7-7--7-7-7-7--7-7-7-7--7-7--0--2--2-2-2-

-----------------------------------------------------------------------------

-----------------------------------------------------------------------------

---------------------------------------------------------------------.-.--.-.

-2-2-2-2--2-2-2-2--2-2-0--3--3-3-3--3-3-3--5--5-5-5--5---------------7-7--5-5

--------------------------------------------------------3--0--0-0-0----------

-----------------------------------------------------------------------------

-----------------------------------------------------------------------------

--5--7--7-7-7--7-7-7-7--7-7-7-7--7-7--0--2--2-2-2--2-2-2-2--2-2-2-2--2-2-0--3

-----------------------------------------------------------------------------

-----------------------------------------------------------------------------

-----------------------------------------------------------------------------

-3-3-3--3-3-3--5--5-5-5--5---------------777--555----7--7-7-7--7-7-7-7--7-7-7

----------------------------3--0--0-0-0--------------------------------------

Guitar Solo

-----------------------------------------------------------------------------

-----------------------------------------------------------------------------

7--7-7-0--2--2-2-2--2-2-2-2--2-2-2-2--2-2-0--3--3-3-3--3-3-3--5--5-5-5--5----

---------------------------------------------------------------------------3-

-----------------------------------------------------------------------------

------------.-.--.-.---------------------------------------------------------

------------7-7--5-5---5--7--7-7-7--7-7-7-7--7-7-7-7--7-7--0--2--2-2-2--2-2-2

-0--0-0-0--------------------------------------------------------------------

-----------------------------------------------------------------------------

-----------------------------------------------------------------------------

-2--2-2-2-2--2-2-0--3--3-3-3--3-3-3--5--5-5-5--5----------------777--555-----

--------------------------------------------------3--0---0-0-0---------------

End Solo

|----------------------------------------------------------------------------

|.---------------------------------------------------------------------------

|.-777-777-777-777-777-777-777--0-555-555-555-555-555-555-555--0--333-333-333

|----------------------------------------------------------------------------

-----------------------------------------------------------------------------

-----------------------------------------------------------------------------

-333-333-333-333--0--555-555-555-555-555-555-555--0--777-777-777-777-777-777-

-----------------------------------------------------------------------------

-----------------------------------------------------------------------------

-----------------------------------------------------------------------------

-777--0--777-777-777-777-777-777-777--0--555-555-555-555-555-555-555--0--333-

-----------------------------------------------------------------------------

----------------------------

| 1.

-----------------------------------------------------------------------------

-----------------------------------------------------------------------------

-333-333-333-333-333-333--0--555-555-555-555-555-555-555--0--777-777-777-777-

-----------------------------------------------------------------------------

------------------ ---------------------------------------------------------

| 2.

------------------|--------------------------------------------999-----------

-----------------.|------------------------------------------------999-------

-777-777-777--0--.|---7---5------------7----777777777777777777----------777--

------------------|-----------3---0------------------------------------------

----------------

----------------||

----------------||

-777-777----7\--||

----------0-----||

Get this song at:  amazon.com sheetmusicplus.com

Share your thoughts

0 Comments found