Iron

Iron - Maiden - Bring Your Daughter To The Slaughter bass tab

Bring your daughter...to the slaughter by Iron Maiden

Very good song , very simple bass line . Maybe there are some errors , but it's close.

standard tuning (E,A,D,G)

transcribed by Mr.@lex

intro

-------------------|

-------------------|

-5---5---5---------|

---3---5---3-0-----|

verse

-----------------------------------|

-----------------------------------|

-----------------------------------|

-0-0-0--0-0-0--0-0-0--0-0-0--0-0-0-|

chorus

-----------|-------------|

-----------|-------------|

-----------|-------------|

--3--0-0-0-|-3--0-0-0----|

----------------|----------------------|

----------------|----------------------|

-3--3-3-3-3-3-3-|-----------------4----|

----------------|--5--5-5-5-5-5-7------|

----------------|-----------------------|

----------------|-----------------------|

-5--5-5--5-5----|-----------------------|

----------------|--5--5-5--5-3----------|

---------------------------------------|

---------------------------------------|

---------------------------------------|

--0---0--0--0-3-0---0---0---0--0-3-0---|

solo

--------------|---------------|--------------|---------------|

--------------|---------------|--------------|---------------|

--------------|-3--3-3-3-3-3--|-0--0-0-0-0-0-|-5--5-5-5------|

--0--0-0-0-0--|---------------|--------------|-----------3-3-|

bridge

-------------------------|-----------------------|

-------------------------|-----------------------|

-------------------------|-----------------------|

-0-0-0-0-0-0-0-0-0-0-0-0-|-3-3-3-3-3-3-3-3-3-3-3-|

-------------------------|------------------------|

-------------------------|------------------------|

-0-0-0-0-0-0-0-0-0-0-0-0-|-0-0-0-0-0-0-0-0-0-0-0-0|

-------------------------|------------------------|

-------------------------|-------------------------|

-------------------------|-------------------------|

-3-3-3-3-3-3-3-3-3-3-3-3-|-5-5-5-5-5-5-5-5-5-5-5-5-|

-------------------------|-------------------------|

-------------------------|-------------------------|

-------------------------|-------------------------|

-------------------------|-------------------------|

-0-0-0-0-0-0-0-0-0-0-0-0-|0-0-0-0-0-0-0-0-0-0-0-0-0|

Get this song at:  amazon.com sheetmusicplus.com

Share your thoughts

0 Comments found