Iron

Iron - Maiden - Brave New World guitar tab

The intro(the best part):

Finger the chords(as bar chords and Palm muted)and pluck/pick the

notes on the B string a bit harder:

Guitar 1(Dave) 2X

Dm C Dm C

|--------------------------------3---------------------------

|--------6----------5------------------------6---------5~-----

|---------------------------5--------------------------------

|----7----------5---------5--------------7---------5---------

|--5----------3-----------------------5----------3-----------

|------------------------------------------------------------

A# C Dm C A#

|-----------------------------------------------------------

|--------3-----------5------------6----------5---------3~-----

|------------------------------------------------------------

|----3----------5------------7-----------5----------3--------

|--1----------3------------5-----------3----------1----------

|-----------------------------------------------------------

i'm not positive about the A#, but it sounds about right

This works for me, but if you want to play it like Dave, don't

use the chords. In the Live@Rock in Rio Video he plays it like this:

|--------1-------------------------------------------------------

|-------------------5--------------8--------------------------5--

|---2----------0-----------0--5-----------------6---------0-----

|-0-------------------------------------0--7------------------

|-----------3-----------------------------------------3--------

|--------------------------------------------------------------

etc...

Or something along those lines... but as far as i can tell the notes

are the same if you play it the other way

Guitar 2 (Janick)

|---------------------------------------------------------------

|-------------------------------------------------------------

|----14----------17-------------------------------------------

|-----------------------------17---------14----------17---17--

|-------------------------------------------------------------

|-------------------------------------------------------------

|---------------------------------------------------------------

|---------------------------------------------------------------

|----14----------17---------------------------------------------

|-----------------------------17---------14--------17-------14--

|---------------------------------------------------------------

|---------------------------------------------------------------

you can see this bit all in the video (i recomend getting Grokster, or

something to get the vedios... their good.)

listen to the song to get the beat for janick's part, its easy

And thats the intro...

Get this song at:  amazon.com sheetmusicplus.com

Share your thoughts

0 Comments found