Iron

Iron - Maiden - Back In The Voyage guitar tab

Intro/Main Riff

--------------------------------------------------------------

-----------------5p2---2-4p2---2-----------------5p2---2-2~-

---------------------5--------5-----------------------5------

-----5-----4-------------------------5-----4-----------------

-0-0---0-0---0-0----------------0-0---0-0---0-0-------------

--------------------------------------------------------------

verse

--------------------------------------------------------------

-----------------5p2---2-4p2---2-----------------5p2---2-2~-

---------------------5--------5-----------------------5------

-----5-----4-------------------------5-----4-----------------

-0-0---0-0---0-0----------------0-0---0-0---0-0-------------

--------------------------------------------------------------

--------------------------------

-6---8--------------------------

-5---7--------------------------

-3---5--------------------------play twice

--------------------------------

--------------------------------

White flags shot to ribbons....

-------------------------------------------

-------------------------------------------

-7---3---0---5------7---3---0--2--2---2---

-7---3---5---5---7--7---3---5--2--4---2----

-5---1---2---3---4--5---1---2--0--0---0----

--------------------------------------------

chorus

----------------------------------------------------------------

----------------------------------------------------------------

-5-5-4p0-----5-5-4p0-----5-5-4p0------------------------------

---------3p0----------3p0---------3p0-3p0-----3p0-------------

-------------------------------------------3p0-----3p0---------

----------------------------------------------------------------

------------------------------------------

-5-5-4p0-----5-5-4p0----------------------

---------3p0----------3p0-5-5------------

--------------------------5--5--5--repeat-

--------------------------3--3--5---------

--------------------------------3---------

-------------------------------------------------------------------

-------------------------------------------------------------------

--------------0h5h7-----------------------------0h5h7-------5~~---repeat

---0h2p0h5h7--------0h5p0-----------0h2p0h5h7--------0h5h7-------

-0-------------------------5p0-----0-------------------------------

-------------------------------5p0---------------------------------

interlude

-5--5-----5---5-----8p5------------------------5-----------------------

--8---8p6---8---8p6-----6-6-5p3-6p3-6-5p3-6p3--6-3-6-5p3-6p3-6-5p3--

------------------------------------------------------------------------

------------------------------------------------------------------------

------------------------------------------------------------------------

------------------------------------------------------------------------

-----5------------------------------

-6p3---6-3-8p6-8p5-----8p6-8p5-----

--------------------7-5---------7-6-

------------------------------------

------------------------------------

------------------------------------

ending 2

--------------------------------

-8p6-8p5-----------------------

---------7---------------------

-----------6-------------------

-----------5h7-----------------

--------------------------------

solo rhythm

--------------------------------

--------------------------------

---8-7------7---5---0dive-------

---8-7------7---5---0----------

-0------------------------------

--------------------------------

But still we walk in.....

--------------------------------------------------

--------------------------------------------------

--------------------------------------------------

-9---------------7----------------repeat--then-7--

-7---------------5-----------------------------7--

-0-0-000000000-0--000000000000--------------5--

Outro repeat chorus

ends with

--------------------------------

-3-------------------------------

-2-------------------------------

-0-------------------------------

--------------------------------

--------------------------------

Get this song at:  amazon.com sheetmusicplus.com

Share your thoughts

0 Comments found