Iron

Iron - Maiden - Afraid To Shoot Strangers bass tab

Afraid to Shoot Strangers ( Harris )

( From the album "Fear of the Dark" )

|----------------------------------------------------------------------------

|.-----2---2-------2---2-------2---2-------2---2-------5---5-------5---5-----

|.---2---2---2---2---2---2---2---2---2---2---2---2---5---5---5---5---5---5---

|--0-----------0-----------0-----------0-----------3-----------3-------------

------------------------------6---6-------6---6-------6---6-------6---6------

-----5---5-------5---5------6---6---6---6---6---6---6---6---6---6---6---6----

---5---5---5---5---5---5--4-----------4-----------4-----------4--------------

-3-----------3---------------------------------------------------------------

-----4---4-------4---4-------4---4-------4---4----|------5---5--------6---6--

---4---4---4---4---4---4---4---4---4---4---4---4-.|----5---5---5----6---6---6

-2-----------2-----------2-----------2-----------.|--3------------4----------

--------------------------------------------------|--------------------------

This is played 4 times.

-----3---3--------5---5--------5---5--------5---5-------5---5-------5---5----

---3---3---3----5---5---5----5---5---5----5---5---5---5---5---5---5---5---5--

-1------------3------------3------------3-----------3-----------3------------

-----------------------------------------------------------------------------

-----6---6--------3---3--------5---5-------5---5-------5---5-------5---5-----

---6---6---6----3---3---3----5---5---5---5---5---5---5---5---5---5---5---5---

-4------------1------------3-----------3-----------3-----------3-------------

-----------------------------------------------------------------------------

|----------------------------------------------------------------------------

|.-----2---2--------2---2--------2---2-------2---2--------5---5-------5---5--

|.---2---2---2----2---2---2----2---2---2---2---2---2----5---5---5---5---5---5

|--0------------0------------0-----------0------------3-----------3----------

------------------------------6---6-------6---6--------6---6--------6---6----

----5---5-------5---5------6----6---6---6---6---6----6---6---6----6---6---6--

--5---5---5---5---5---5--4------------4------------4------------4------------

-3----------3----------------------------------------------------------------

------4---4-------4---4-------4---4-------4---4----|-----5---5--------5---5--

----4---4---4---4---4---4---4---4---4---4---4---4-.|.--5---5---5----5---5---5

-2------------2-----------2-----------2-----------.|.3------------3----------

---------------------------------------------------|-------------------------

-----6---6-------3---3--------5---5-------5---5-------5---5-------5---5-----|

---6---6---6---3---3---3----5---5---5---5---5---5---5---5---5---5---5---5--.|

-4-----------1-----------3------------3-----------3-----------3------------.|

----------------------------------------------------------------------------|

Play 4 times.

11-11-11-11-11-7-7-7-7-7-9-9-9-9-9--7-7-7--9-9-9-11-11-11-11-11-7-7-7-7-7--9-

11-11-11-11-11-7-7-7-7-7-9-9-9-9-9--7-7-7--9-9-9-11-11-11-11-11-7-7-7-7-7--9-

-9--9--9--9--9-5-5-5-5-5-7-7-7-7-7--5-5-5--7-7-7--9--9--9--9--9-5-5-5-5-5--7-

-----------------------------------------------------------------------------

Faster.

-9-9-9-9-9-4-4-4--6-6-6-11-11-11-11-11-7-7-7-7-7--9-9-9-9-9--7-7-7--9-9-9-11-

-9-9-9-9-9-4-4-4--6-6-6-11-11-11-11-11-7-7-7-7-7--9-9-9-9-9--7-7-7--9-9-9-11-

-7-7-7-7-7-2-2-2--4-4-4--9--9--9--9--9-5-5-5-5-5--7-7-7-7-7--5-5-5--7-7-7--9-

-----------------------------------------------------------------------------

11-11-11-11--7-7-7-7-7--9-9-9-9-9--4--4--6-6-6-11-11-11-11-11-7-7-7--7--9-9-9

11-11-11-11--7-7-7-7-7--9-9-9-9-9--4--4--6-6-6-11-11-11-11-11-7-7-7--7--9-9-9

-9--9--9--9--5-5-5-5-5--7-7-7-7-7--2--2--4-4-4--9--9--9--9--9-5-5-5--5--7-7-7-

-----------------------------------------------------------------------------

-9-9-7-7-7--9-9-9-11-11-11-11-11-7-7-7--7--9-9-9-9-9-4-4-4-6-6-6-11-11-11-11-

-9-9-7-7-7--9-9-9-11-11-11-11-11-7-7-7--7--9-9-9-9-9-4-4-4-6-6-6-11-11-11-11-

-7-7-5-5-5--7-7-7--9--9--9--9--9-5-5-5--5--7-7-7-7-7-2-2-2-4-4-4--9--9--9--9-

-----------------------------------------------------------------------------

11-7-7-7--7--9-9-9-9-9--7-7-7--9-9-9-11-11-11-11-11-7-7-7--7--9-9-9-9-9-4-4-4

11-7-7-7--7--9-9-9-9-9--7-7-7--9-9-9-11-11-11-11-11-7-7-7--7--9-9-9-9-9-4-4-4

-9-5-5-5--5--7-7-7-7-7--5-5-5--7-7-7--9--9--9--9--9-5-5-5--5--7-7-7-7-7-2-2-2

-----------------------------------------------------------------------------

"Afraid to shoot strangers..." etc.

-6-6-6-11-11-11-11-11-7-7-7-7-7--9-9-9-9-9--7-7-7--9-9-9-11-11-11-11-11--7-7-

-6-6-6-11-11-11-11-11-7-7-7-7-7--9-9-9-9-9--7-7-7--9-9-9-11-11-11-11-11--7-7-

-4-4-4--9--9--9--9--9-5-5-5-5-5--7-7-7-7-7--5-5-5--7-7-7--9--9--9--9--9--5-5-

-----------------------------------------------------------------------------

7-7-7-9-9-9-9-9-4-4-4-6-6-6--|---9-------------------------9------------7-7--

7-7-7-9-9-9-9-9-4-4-4-6-6-6--|.--9-------------------------9------------7-7--

5-5-5-7-7-7-7-7-2-2-2-4-4-4--|.--7--7-7--7-7--7-7-7-7-7-7--7--7-7--7-7--5-5--

-----------------------------|-----------------------------------------------

Faster (solo part).

5-5--9-------------------------9------------7-7--5-5--7----------------------

5-5--9-------------------------9------------7-7--5-5--7----------------------

3-3--7--7-7--7-7--7-7-7-7-7-7--7--7-7--7-7--5-5--3-3--5--5-5--5-5--5-5-5-5-5-

-----------------------------------------------------------------------------

---7------------2-2--4-4--9-------------------------9------------7-7--5-5---|

---7------------2-2--4-4--9-------------------------9------------7-7--5-5--.|

5--5--5-5--5-5--0-0--2-2--7--7-7--7-7--7-7-7-7-7-7--7--7-7--7-7--5-5--3-3--.|

----------------------------------------------------------------------------|

|--9-------------------------5------------7------------9---------------------

|.-9-------------------------5------------7------------9---------------------

|.-7--7-7--7-7--7-7-7-7-7-7--3--3-3--3-3--5--5-5--5-5--7--7-7--7-7--7-7-7-7-7

|----------------------------------------------------------------------------

----9-------------------------9-------------------------|-9------------------

----9-------------------------9------------------------.|-7--7-7--7-7--7-7-7-

-7--7--7-7--7-7--7-7-7-7-7-7--7--7-7--7-7--7-7-7-7-7-7-.|--------------------

--------------------------------------------------------|--------------------

-------5------------7------------9-------------------------9-----------------

7-7-7--3--3-3--3-3--5--5-5--5-5--7--7-7--7-7--7-7-7-7-7-7--7--7-7--7-7-------

-----------------------------------------------------------------------------

-----------------------------------------------------------------------------

--------------9-------------------------5------------7------------9----------

-7-7-7-7-7-7--9-------------------------5------------7------------9----------

--------------7--7-7--7-7--7-7-7-7-7-7--3--3-3--3-3--5--5-5--5-5--7--7-7--7-7

-----------------------------------------------------------------------------

--------------9-----------------------|--7--9-----------------------7--9-9--7

--------------9-----------------------|.-7--9-----------------------7--9-7--5

-7-7-7-7-7-7--7--7-7--7-7--7-7-7-7-7-7|.-5--7--7--7-7--7-7-7-7-7-7--5--7-----

--------------------------------------|--------------------------------------

"Afraid... Afraid to shoot strangers"

-7--9-----------------------7--9--9--7---5--7-----------------------5--7-9--7

-7--9-----------------------7--9--7--5---5--7-----------------------5--7-7--5

-5--7--7--7-7--7-7-7-7-7-7--5--7---------3--5--5--5-5--5-5-5-5-5-5--3--5-----

-----------------------------------------------------------------------------

-7--9-----------------------7--9-9--7--|-9-------------------------9---------

-7--9-----------------------7--9-7--5-.|-9-------------------------9---------

-5--7--7--7-7--7-7-7-7-7-7--5--7------.|-7--7-7--7-7--7-7-7-7-7-7--7--7-7----

---------------------------------------|-------------------------------------

------7-7--5-5--9-------------------------9------------7-7--5-5--7-----------

------7-7--5-5--9-------------------------9------------7-7--5-5--7-----------

-7-7--5-5--3-3--7--7-7--7-7--7-7-7-7-7-7--7--7-7--7-7--5-5--3-3--5--5-5--5-5-

-----------------------------------------------------------------------------

--------------7------------2-2--4-4--9-------------------------9-------------

--------------7------------2-2--4-4--9-------------------------9-------------

-5-5-5-5-5-5--5--5-5--5-5--0-0--2-2--7--7-7--7-7--7-7-7-7-7-7--7--7-7--7-7---

-----------------------------------------------------------------------------

-7-7--5-5-11-11-11-11-11-7-7-7-7-7-9-9-9--9--7-7-7--9-9-9-11-11-11-11-11-7-7-

-7-7--5-5-11-11-11-11-11-7-7-7-7-7-9-9-9--9--7-7-7--9-9-9-11-11-11-11-11-7-7-

-5-5--3-3--9--9--9--9--9-5-5-5-5-5-7-7-7--7--5-5-5--7-7-7--9--9--9--9--9-5-5-

-----------------------------------------------------------------------------

Slow down.

7-7-7--9-9-9--9--4-4-4--6-6-6-11-11-11-11-11-7-7-7-7-7-9-9-9--9--7-7-7-9-9-9-

7-7-7--9-9-9--9--4-4-4--6-6-6-11-11-11-11-11-7-7-7-7-7-9-9-9--9--7-7-7-9-9-9-

5-5-5--7-7-7--7--2-2-2--4-4-4--9--9--9--9--9-5-5-5-5-5-7-7-7--7--5-5-5-7-7-7-

-----------------------------------------------------------------------------

11-11-11-11-11-7-7-7-7-7-9-9-9--9--4--4--6-6-6-11-11-11-11-11-7-7-7--7--9-9-9

11-11-11-11-11-7-7-7-7-7-9-9-9--9--4--4--6-6-6-11-11-11-11-11-7-7-7--7--9-9-9

-9--9--9--9--9-5-5-5-5-5-7-7-7--7--2--2--4-4-4--9--9--9--9--9-5-5-5--5--7-7-7

-----------------------------------------------------------------------------

9-9--7-7-7--9-9-9-11-11-11-11-11-7-7-7--7--9-9-9-9-9--4-4-4--6-6-6-11-11-11--

9-9--7-7-7--9-9-9-11-11-11-11-11-7-7-7--7--9-9-9-9-9--4-4-4--6-6-6-11-11-11--

7-7--5-5-5--7-7-7--9--9--9--9--9-5-5-5--5--7-7-7-7-7--2-2-2--4-4-4--9--9--9--

-----------------------------------------------------------------------------

11-11-7-7-7--7--9-9-9-9-9--7-7-7--9-9-9-11-11-11-11-11--7-7-7--7--9-9-9-9-9--

11-11-7-7-7--7--9-9-9-9-9--7-7-7--9-9-9-11-11-11-11-11--7-7-7--7--9-9-9-9-9--

-9--9-5-5-5--5--7-7-7-7-7--5-5-5--7-7-7--9--9--9--9--9--5-5-5--5--7-7-7-7-7--

-----------------------------------------------------------------------------

-4-4-4--6-6-6-11-11-11-11-11--7-7-7--7--9-9-9-9-9--7-7-7--9-9-9-11-11-11-11--

-4-4-4--6-6-6-11-11-11-11-11--7-7-7--7--9-9-9-9-9--7-7-7--9-9-9-11-11-11-11--

-2-2-2--4-4-4--9--9--9--9--9--5-5-5--5--7-7-7-7-7--5-5-5--7-7-7--9--9--9--9--

-----------------------------------------------------------------------------

Rit.

11--7-7-7--7--9-9-9-9-9--4-4-4--6-6-6--11--||

11--7-7-7--7--9-9-9-9-9--4-4-4--6-6-6--11--||

-9--5-5-5--5--7-7-7-7-7--2-2-2--4-4-4---9~-||

-------------------------------------------||

Get this song at:  amazon.com sheetmusicplus.com

Share your thoughts

0 Comments found