Iron

Iron - Maiden - Aces High bass tab

Tab explanations

-----------------------------------------------------

> Accent | / Slide up

. Staccatto | \ Slide down

h Hammer-on/ pull off | : Repeat

� Harmonic | ~ slight bend

-----------------------------------------------------

Aces High ( Harris )

( From the album " Powerslave " )

11---------7---------11---------7---------11---------7--------|--------------

11---------7---------11---------7---------11---------7--------|.-7--7-7-7-7-7

-9---999---5---777----9---999---5---555----9---999---5--7-7-7-|.-------------

--------------------------------------------------------------|--------------

Fast

-----------------------------------------|-----------------------------------

-7--7--7--3--3-3-3-3-3--5--5-5-5-5-5-5--.|.----------------------------------

----------------------------------------.|.---557-7-7-7-557-7-7-7-557-7-7-7--

-----------------------------------------|-----------------------------------

Play 4 times Lyrics enter

-----------|-------------------------------------4-------|-------------------

-----4----.|.--557-7-7-7-557-7-7-7-557-7-7-7-555----5---.|.------------------

-555---5--.|.-------------------------------------------.|.-5--7-7-7-7--10--7

-----------|---------------------------------------------|-------------------

Play 4 times Play 4 times

--------------------7-6-4-2-5-4-2-0------------------------------------------

--------7--------------------------------------------------------7-----------

-7-7-7-----7-7-7-7--------------------5--7-7-7-7---10--7-7-7-7------7-7-7-7--

-----------------------------------------------------------------------------

--5-4-2-0-2----|----------------------------------------------------|--------

--------------.|.--------------------------------------------------.|---5--5-

--------------.|.--7--7-7-7-7--7-7-7-7-7-5-3--3-3-3-3--5--5-5-5-5--.|--------

---------------|----------------------------------------------------|--------

Play 4 times

-----------------------------------------------------------------------------

-5-5-5--5-5-5-5-5-3--1-1-1-1--3--3-3-3-3--5--5-5-5-5--5-5-5-5-5-3--1-1-1-1-1-

-----------------------------------------------------------------------------

-----------------------------------------------------------------------------

-----------------------------------------------------------------------------

-3--3-7-3--5--5-5-5-5--5-5-5-5-5-3--1-1-1-1-1--3-3-3-3-3--5--5-5-5-5--5-5-5-5

-----------------------------------------------------------------------------

-----------------------------------------------------------------------------

---------------------------------.-----------------7-7-------.---------------

-5-3--1-1-1-1-1--3-3-8-3---7-10-10-7-7-7-10-9-7--------7-10-10-7-7-7-10-9-7--

------------------------------------------------10---------------------------

-----------------------------------------------------------------------------

----------------.------------------7-7--------.-----------------.----------.-

----7-7---7-10-10-7-7-7-10-9-7----------7-10-10-7-7-7-10-9-7----7----7-10-10-

-10----------------------------10----------------------------10--------------

-----------------------------------------------------------------------------

-----------------7-7--------.-----------------------------.------------------

-7-7-7-10-9-7---------7-10-10-7-7-7-10-9-7----7-7---7-10-10-7-7-7-10-9-7----7

--------------10---------------------------10----------------------------10--

-----------------------------------------------------------------------------

-----------.------------------.----------------------------------------------

-7---7-10-10-7-7-7-10-9-7-----7-----7--7-7-7-7--7-7-7-7-7-5-3--3-3-3-3--5--5-

---------------------------10------------------------------------------------

-----------------------------------------------------------------------------

Guitar solo

-----------------------------------------------------------------------------

-5-5-5--7--7-7-7-7--7-7-7-7-5-------------------------7--7-7-7-7--7-7-7-7-7-5

------------------------------3--3-3-3-3--5--5-5-5-5-------------------------

-----------------------------------------------------------------------------

-----------------------------------------------------------------------------

-3--3-3-3-3--5--5-5-5-5--7--7-7-7-7--7-7-7-7-7-5--------------------5----9--9

-------------------------------------------------3--3-3-3-3--5--5-5---5------

-----------------------------------------------------------------------------

-----------------------------------------------------------------------------

-9-9-9--9-9-9-9-9-7-5--5-5-5-5--7-7-7-7-7--9--9-9-9-9--9-9-9-9-9-7-----------

-------------------------------------------------------------------5--5-5-5-5

-----------------------------------------------------------------------------

-----------------------------------------------------------------------------

------------9--9-9-9-9--9-9-9-9-9-7-5--5-5-5-5--7--7-7-7-7--9--9-9-9-9--9-9-9

-7-7-7-7-7-------------------------------------------------------------------

-----------------------------------------------------------------------------

--------------------------------------.-------------------7-7--------.-------

-9-9-7------------------7-------7-10-10-7-7-7-10-9-7-----------7-10-10-7-7-7-

--------5--5-5-5-5--7-7---7-7-------------------------10---------------------

-----------------------------------------------------------------------------

------------------------.------------------7-7---------.-----------------.---

-10-9-7-----7-7---7-10-10-7-7-7-10-9-7-----------7-10-10-7-7-7-10-9-7----7---

---------10-----------------------------10----------------------------10-----

-----------------------------------------------------------------------------

-------.------------------7-7---------.------------------------------.-------

-7-10-10-7-7-7-10-9-7-----------7-10-10-7-7-7-10-9-7-----7-7---7-10-10-7-7-7-

-----------------------10-----------------------------10---------------------

-----------------------------------------------------------------------------

-----------7-7----------.-------------------.--|-----------------------------

-10-9-7-----------7-10-10-7-7-7-10-9-7------7--|.----------------------------

--------10------------------------------10-----|.--557-7-7-7-557-7-7-7-557-7-

-----------------------------------------------|-----------------------------

---------------|-------------------------------------4----|------------------

---------4----.|.--557-7-7-7-557-7-7-7-557-7-7-7-555---5-.|------------------

-7-7-555---55-.|.----------------------------------------.|-5-7-7-7-7-10-7-7-

---------------|------------------------------------------|------------------

Play 4 times Play 4 times

---------------7-6-4-2-5-4-2-0---------------------------------5-4-2-0-2-----

-----7-----------------------------------------------7-----------------------

-7-7---7-7-7-7------------------5-7-7-7-7-10-7-7-7-7---7-7-7-7------------5-7

-----------------------------------------------------------------------------

----------------------------7-6-4-2-5-4-2-0----------------------------------

------------------7------------------------------------------------7---------

-7-7-7-10-7-7-7-7---7-7-7-7-------------------5-7-7-7-7-10-7-7-7-7---7-7-7-7-

-----------------------------------------------------------------------------

-5-4-2-0-2--|----------------------------------------------------|-----------

------------|.--------------------------------------------------.|--5--5-5-5-

------------|.--7--7-7-7-7--7-7-7-7-7-5-3--3-3-3-3--5--5-5-5-5--.|-----------

------------|----------------------------------------------------|-----------

Play 4 times

-----------------------------------------------------------------------------

-5--5-5-5-5-5-3--1-1-1-1-1--3--3-3-3-3--5--5-5-5-5--5-5-5-5-5-3--1-1-1-1-1--3

-----------------------------------------------------------------------------

-----------------------------------------------------------------------------

-----------------------------------------------------------------------------

-333-7-3--5--5-5-5-5--5-5-5-5-5-3--1-1-1-1-1--3--3-3-3-3--5--5-5-5-5--5-5-5-5

-----------------------------------------------------------------------------

-----------------------------------------------------------------------------

----------------------------------------.-.-.--------------------------------

-5-3--1-1-1-1-1--333-8-3---7--7-7-7-7-7-7-7-7--3--3-3-3-3-3--5--5-5-5-5-5--7-

-----------------------------------------------------------------------------

-----------------------------------------------------------------------------

-----------.-.-.-------------------------------------------.-.-.-------------

-7-7-7-7-7-7-7-7--3--3-3-3-3-3--5--5-5-5-5-5--7--7-7-7-7-7-7-7-7--3--3-3-3-3-

-----------------------------------------------------------------------------

-----------------------------------------------------------------------------

-----------------------------------------------------------------------------

-3--5--5-5-5-5-5--7--7-7-7-7-7-7-7-7--3------5----/7-------------------------

------------------------------------------------------0-0-0-0-0-0-0-0-0-0-0-0

-----------------------------------------------------------------------------

Ritard.

-------h---------------------------------------------------------------------

------5-7-7-7-7-7-7-7-7-7-5---7-5---5-7-7-7-7-7-7-7-7-7--5-5-5---------------

-0-0------------------------7-----7----------------------------7-7--5-5------

-------------------------------------------------------------------------7-7-

------------------------------||

--------------------------7\--||

-----------0-0-0----------0---||

-5-5--3--5--------------------||

Get this song at:  amazon.com sheetmusicplus.com

Share your thoughts

0 Comments found