Iris

Iris - vis pierdut #1 guitar tab

Artist: IRIS

Album: LUNA PLINA

Transcriere: VASILESCU ANDREI tabulaturi@k.ro

www.www.livada-cu-taburi.com

Intro

e-|------------------------------------------------------------------

B-|------------------------------------------------------------------

G-|----------7-9-11-12-12p11p9-----11-11/9-7h911--7h9p7-------------

D-|---7-9-10--------------------12-----------------------7-9-10------

A-|-7----------------------------------------------------------------

E-|------------------------------------------------------------------

e-|-------------------------------------------------<12>-------------

B-|-----------10-12-13-10-12-8-10-7-8-5-7-3-5----<12>----------------

G-|-7-9-11-12--------------------------------------------------------

D-|------------------------------------------------------------------

A-|------------------------------------------------------------------

E-|------------------------------------------------------------------

Em D

I.Cand ma uit la mine cel ce-a fost

Em D

Am iesit rebelul fara rost

Am Em

Nu am trait decat pentru o zi

Am Em

Nu m-a mirat a fi

Em D

II.Am pierdut si nici ca am stiut

Em D

Zile-au fost un dor neintrerupt

Am Em

Nu am stiut decat sa uit mereu

Am Em D

Ca maine voi fi tot eu

C D G G/F# Em

Refren:Tot ce-am vrut a fost ca timpul sa mai stea

C D Em D

Nu mai mult ca viata mea

C D G G/F# Em

Nu imi pare rau de anii ce-au trecut

C D Em

Ei mi-au dat ce n-am avut

Solo

e-|------------------------------------------------------------------

B-|------------------------------------------------------------------

G-|------------------------------------------------------------------

D-|-7-5-7--7-5-7--7-5-79-12/9-9/7-7/5-5/4-4h5-5-----5-7^-5-4--4-5-4-

A-|----------------------------------------------5-7-----------------

E-|------------------------------------------------------------------

e-|------------------------------------------------------------------

B-|------------------------------------10-10-8-10--10-8-1012-15/12--

G-|-------------------------------911-------------------------------

D-|-----5-7^-5-4-5-----------911------------------------------------

A-|-5-7------------7--7-911-----------------------------------------

E-|------------------------------------------------------------------

e-|------------------------------------------------------------10^---

B-|-1210-10/8-8/7-78-----8-10^-8-10-10-8-10-10-8-10^-8-7-8---------

G-|--------------------7-9-----------------------------------9-------

D-|------------------------------------------------------------------

A-|------------------------------------------------------------------

E-|------------------------------------------------------------------

Refren:Tot ce-am vrut a fost ca timpul sa mai stea

Nu mai mult ca viata mea

Nu imi pare rau de anii ce-au trecut

Ei mi-au dat ce n-am avut

Tot ce-am vrut a fost ca timpul sa mai stea

Nu mai mult ca viata mea

Nu imi pare rau de anii ce-au trecut

Toti plecau ca un vis pierdut

Get this song at:  amazon.com sheetmusicplus.com

Share your thoughts

0 Comments found