Iris

Iris - Vino pentru totdeaunua (solo inceput) guitar tab

e|-----------------|-----------7H9-7-|

B|-5~~-4H5-4--4H5--|-----5H7-5-------|

G|---------------6-|-4H6-------------|

D|-----------------|-----------------|

A|-----------------|-----------------|

E|-----------------|-----------------|

|---------------|-3-4-5--6-5-6-8-9-|-10-12-14-16-|

|--4H5-5--4H5---|------------------|-------------|

|-------------6-|------------------|-------------|

|---------------|------------------|-------------|

|---------------|------------------|-------------|

|---------------|------------------|-------------|

Get this song at:  amazon.com sheetmusicplus.com

Share your thoughts

0 Comments found