Iris

Iris - Ultima toamna guitar tab

Transcriere: VASILESCU ANDREI (tabulaturi@k.ro)

Intro

e-|-------------|-------------|-------------|------------------

B-|-------------|-------------|-----3-------|------------------

G-|-----2-2/4-2-|-----2-2/4-2-|---2---2/4-2-|------------------

D-|---2---------|---2---------|-0-----------|-----2-2/4-2------

A-|-0-----------|-4-----------|-------------|---2---------4-2--

E-|-------------|-------------|-------------|-0----------------

e-|-------------|-------------|-------------|------------0-----

B-|-------------|-------------|-----3-------|------------0-----

G-|-----2-2/4-2-|-----2-2/4-2-|---2---2/4-2-|------------1-----

D-|---2---------|---2---------|-0-----------|-----2-2/4--2-----

A-|-0-----------|-4-----------|-------------|---2--------2-----

E-|-------------|-------------|-------------|-0----------0-----

Strofa

Prima parte se repeta pana la \\"Flori de dor la geamul meu\\":

e-|-------------|-------2-------|-------0-------|--------------

B-|-------------|-----2---5-2-5-|-----3---3---3-|--------------

G-|-----2-2/4-2-|---2-----------|---2-------2---|--------------

D-|---2---------|-2-------------|-0-------------|---2-2/4-2----

A-|-0-----------|---------------|---------------|--2--------4-2

E-|-------------|---------------|---------------|-0------------

Partea a doua este la \\"Flori de dor la geamul meu..\\":

e-|-----------------|-----------------|------------------------

B-|-----3-------3---|-----------------|-----3-------3----------

G-|---2---2---2---2-|-----2-------2---|---2---2---2---2--------

D-|-0-------0-------|---2---2---2---2-|-0-------0--------------

A-|-----------------|-0-------0-------|------------------------

E-|-----------------|-----------------|------------------------

e-|-----------------|-----------------|------------------------

B-|---2-2-2-3p2-0h2-|-----3-------3---|---------2---5----------

G-|---2-2-2-2---0h2-|---2---2---2---2-|-----4-----2---2--------

D-|-----------------|-0-------0-------|---2---2----------------

A-|-0---------------|-----------------|-0----------------------

E-|-----------------|-----------------|------------------------

e-|-----------------0------------------------------------------

B-|-----------------0------------------------------------------

G-|-----------------1------------------------------------------

D-|-----2-2/4-2-----2------------------------------------------

A-|---2---------4-2-2------------------------------------------

E-|-0---------------0------------------------------------------

Pe refren se repeta intro-ul

Partea a treia este cantata inainte de ultimul refren, sa-i spunem solo :) :

e-|-------3---|-------3---|-----------|------------------------

B-|-----1-1-1-|-----1-1-1-|-------1-0-|-------0-1-0------------

G-|---2-----2-|---2-----2-|-----2-----|-----2-------2-0--------

D-|-3---------|-0---------|---2-------|---2--------------------

A-|-----------|-----------|-0---------|-0----------------------

E-|-----------|-----------|-----------|------------------------

e-|-------3---|-------3---|-----------------5------------------

B-|-----1-1-1-|-----1-1-1-|-------1-3p1-0h1-5------------------

G-|---2-----2-|---2-----2-|-----2-----------5------------------

D-|-3---------|-0---------|---2-------------7------------------

A-|-----------|-----------|-0---------------7------------------

E-|-----------|-----------|-----------------5------------------

Outro:

e-|-----------------5------------------------------------------

B-|-------1-3p1-0h1-5------------------------------------------

G-|-----2-----------5------------------------------------------

D-|---2-------------7------------------------------------------

A-|-0---------------7------------------------------------------

E-|-----------------5------------------------------------------

Intro

I.M-ai rugat din nou acum

Sa ma-ntorc pe vechiul drum

Noptile au amintiri

Si multe priviri

II.Zi de zi eu te chemam

Era tarziu si te visam

Frunze cad in calea ta

Veneai pe-nserat

Bridge:Flori de dor la geamul meu

Luna canta valsul tau

III.Toate au fost la timpul lor

Si mi-am zis ca nu-i usor

Sa pictez un colt de cer

Cand tot a fost ieri

Bridge:Flori de dor la geamul meu

Luna canta valsul tau

Refren:Haide vino-i toamna iar

Cu ploi si soare

Tot ce-a fost ca la-nceput

Din nou apare

Haide vino-i toamna iar

Cu ploi si soare

Tot ce-a fost ca la-nceput

Din nou apare

solo

(pe primul vers nu se aude decat vocea, fara chitara)

Refren:Haide vino-i toamna iar

Cu ploi si soare

Tot ce-a fost ca la-nceput

Din nou apare

Haide vino-i toamna iar

Cu ploi si soare

Tot ce-a fost ca la-nceput

Din nou apare

Get this song at:  amazon.com sheetmusicplus.com

Share your thoughts

0 Comments found