Iris

Iris - Sa nu crezi nimic guitar tab

intro:

repeta

e|-----------|---|----/12--/12---12p10p8---7---10b12--10--8--7---10b12~~-|

B|----0--|---|-------------------------------------------------------|

G|-----------|---|-------------------------------------------------------|

D|-----------|---|-------------------------------------------------------|

A|-----------|---|-------------------------------------------------------|

E|-----------|---|-------------------------------------------------------|

Strofa:

Acord("Am");

Sa nu crezi ce-ti spun acum

Acord("Dm"); Acord("G");

Vorbele-mi sunt vant nebun

Acord("Am"); Acord("G"); Acord("F");

Sa nu crezi ce-ti spun acum

Acord("F");

Chiar de eu iti spun

Acord("Dm"); Acord("G");

vei fi a mea oricum

Sa nu crezi ce-auzi acum

E un cantec scris pe drum

Pentru ea, doar pentru ea

il voi canta oricum

Ref:

Acord("Em");

Sa nu crezi nimic

Acord("Dm");

Vorbele-s doar fum

Acord("Dm");

Iar ce simti tu lasi in drum

Acord("Am");

In praf de amintire

solo:

e|------5-7-8------------------------------------5-|

B|-----5------5---6p5\\\\3-5----/5p3------------5h8--|

G|----5---------------------------5-5p3--5/7-------|

D|---7---------------------------------------------|

A|-------------------------------------------------|

E|-------------------------------------------------|

e|---8-10-8-7----5-7-7/8-7-5--8/10-8-7--|

B|--------------------------------------|

G|--------------------------------------|

D|--------------------------------------|

A|--------------------------------------|

E|--------------------------------------|

e|--10/12-10-8-7-------10-10-10--8-8-8--7-7-7-|

B|--------------------------------------------|

G|--------------------------------------------|

D|--------------------------------------------|

A|--------------------------------------------|

E|--------------------------------------------|

e|-----------------------8-------------------|

B|-10-9~~-----------/10----10----------------|

G|----------10-9-10--------------------------|

D|-------------------------------------------|

A|-------------------------------------------|

E|-------------------------------------------|

e|------------------------8-7------7--------|

B|----/5-------------8h10-------10----8-8-8-|

G|-------7-5---5-7/9------------------9-9-9-|

D|-----------7------------------------------|

A|------------------------------------------|

E|------------------------------------------|

e|---------------------------------------------|

B|-6-6-6--5-5-5-------------5-6-8/10-9---------|

G|-7-7-7--5-5-5-0h2-4-5/7----------------------|

D|---------------------------------------------|

A|---------------------------------------------|

E|---------------------------------------------|

Ref:

Get this song at:  amazon.com sheetmusicplus.com

Share your thoughts

0 Comments found