Iris

Iris - O iubire fara sfarsit guitar tab

INTRO

Acord("Am"); Acord("G"); Acord("F"); Acord("C");

e--0-0---0---3---3----1--1--- --1-1----1---3--------

B--1-1---1---3---3----1--1--- --1-1----1---3----1---

G--2-2---2---0---0----2--2--- --2-2----2---0----0---

D--2-2---2---0---0----3--3--- --3-3----3---0----2---

A--0-0---0---2---2----3--3--- --3-3----3---2----3---

E------------3---3----1--1--- --1-1----1---3----3---

VERSURI(fingerpicking)

e--------------0----------- --------------0------------

B-----------1-----1-------- -----------1-----1---------

G--------0-----------0----- --------2-----------2------

D-----2-----------------2-- -----2-----------------2---

A--3----------------------- --0------------------------

E-------------------------- ---------------------------

Te caut cu iarna,

e--------------3----------- --------------------------- --------

B-----------------3-------- --------------------------- ---1----

G-----------0--------0----- -----------------2--------- ---0----

D--------0--------------0-- --------0-----2------------ ---2----

A-----2-------------------- -----2-----0--------2------ ---3----

E--3----------------------- --3------------------------ ---3----

te caut demult......

Acord("Am"); Acord("G"); Acord("C"); Acord("F");

Pasii tai ce, poate nu se mai aud

Acord("Am"); Acord("G"); Acord("Am");

Si urma lor ce s-a pierdut

Strofa a II-a

............................

............................

Acord("Am"); Acord("G"); Acord("C"); Acord("F");

Ca ploaia ce-mi aduci e o lacrima din cer

Acord("Am"); Acord("G"); Acord("C");

Si nu mai vreau decat sa sper

trecerea de la versuri la refren

Acord("G"); Acord("Am");

e--3--------

B--3--1-----

G--0--2--4--

D--0--2-----

A--2--0--2--

E--3--------

Refren

Acord("C"); Acord("G"); Acord("Am"); Acord("F");

O iubire alba fara de sfarsit,

Acord("C"); Acord("G"); Acord("C");

Poarta visul nostru infinit,

trecerea Acord("G"); Acord("Am"); Acord("B5");

Acord("C"); Acord("G"); Acord("Am"); Acord("F");

O iubire alba toata viata mea,

Acord("C"); Acord("G"); Acord("C");

Si-o daruiesc cu flori de nea

INTRO

Strofa A III-A

REFREN

Ch. distorsiune:

Acord("A#5"); Acord("F5");

Am putea s-o pierdem,e usor !

Acord("C5");

Stiu, e greu,

Acord("A5");

S-o pastram !

Armonia pentru solo(Ch.cu distorsiune):

Acord("D5"); Acord("C5"); Acord("G5"); Acord("F5"); Acord("E5");

Acord("D5"); Acord("C5"); Acord("G5"); Acord("F5"); Acord("D5"); Acord("E5");

Acord("D5"); Acord("F5");

Am putea s-o pierdem,e usor !

Acord("C5");

Stiu, e greu,

Acord("A5");

S-o pastram!

REFREN((Ch.CU distorsiune)

OUTRO=INTRO

Get this song at:  amazon.com sheetmusicplus.com

Share your thoughts

0 Comments found