Iris

Iris - Isolados Do Mundo guitar tab

Bem...

Já que ninguém se decide a fazer uma tablatura de nenhuma música dos Íris eu gostava de

aqui a tablatura desta grande música da banda algarvia mais famosa!

Esta música tirei toda de ouvido por isso se descobrirem algum erro ou não concordarem

alguma parte enviem para webmaster at tabs-database.com.com

Em relação aos acordes tenho a certeza de que estão correctos e solo também penso que sim...

o meu ouvido não se costuma enganar loOl ...mas aceito críticas ;)

Acordes usados:

G 320033 Sol

C9 x32033 Dó de nona

D x00232 Ré

C x32010 Dó

Introdução:

G C9

C9 G C9

Dá-me um cigarro

G C9

Deixa-me entrar nesse mundo vazio

G C9

Perdidos na noite

G C9

Preciso de alguém que me faça sentir

D

O prazer de viver

C D

E deitados na areia, ficámos tão juntos

C D

Senti os teus lábios em gestos profundos

C

Ficámos os dois

G C9 C C9

Isolados do Mundo!

Entra no carro

Vamos correr esse mundo vazio

Perdidos na noite

E juntos iremos então descobrir

O prazer de viver

E deitados na areia, ficámos tão juntos

Senti os teus lábios em gestos profundos

Ficámos os dois

Isolados do Mundo!

Solo:

e ---------------------10-------10-----------------------------------|

B ----------------7-8-----8---8----8---8---8---8---8---8-------------|

G ------------7-9-----------7--------7---5---4-----------------4-----|

D -----7-9-10------------------------------------7---5---4-5-7---5~--|

A --10---------------------------------------------------------------|

E -------------------------------------------------------------------|

-----------------------10-----8-----7--5--------------------|

--------------8~-----8------8-----8------8-7-5--------------|

------------7------7------7-----7--------------7-5-4--------|

-----7-9-10------------------------------------------7-5----|

--10--------------------------------------------------------|

------------------------------------------------------------|

------10-----8-----7--7-8----7---------------------------------|

----8------8-----8--------10---8-10-7-8---7--------------------|

--7------7-----7------------------------9---7-9----7------7~---|

------------------------------------------------10---9-10------|

---------------------------------------------------------------|

---------------------------------------------------------------|

E é tudo!

Este solo soa-me muito bem mas se acharem que tem alguma parte que podia ser melhorada digam!

Apesar de não ser muito difícil, não é propriamente um solo que se consiga tocar logo à

;P

Classifiquem esta tablatura!

ESTA MÚSICA É DEDICADA AO PEOPLE DO FAROL!!!! xDAdded by tabs-database.com and our distinguished partners

Get this song at:  amazon.com sheetmusicplus.com

Share your thoughts

0 Comments found