Iris

Iris - De vei pleca guitar tab

Intro ºi vers:

Acord("A"); Acord("D"); Acord("A");

^ ^ ^

E||--0----L-------------0--|--2----L-------------2--|--0----L----0-----------|

B||--2----L----------2-----|--3----L----------3-----|--2----L-------2--------|

G||--2----L-------2--------|--2----L-------2--------|--2----L----------2-----|

D||--2----L----2-----------|--0----L----0-----------|--2----L-------------2--|

A||--0----L----------------|------------------------|--0----L----------------|

E||------------------------|------------------------|------------------------|

Acord("A"); Acord("D");

^ ^ ^ ^

--2----2------------|--0----L-------------0--|--2----L-------------2--|

--3----3------------|--2----L----------2-----|--3----L----------3-----|

--2----2------------|--2----L-------2--------|--2----L-------2--------|

--0----0------------|--2----L----2-----------|--0----L----0-----------|

--------------------|--0----L----------------|------------------------|

--------------------|------------------------|------------------------|

Acord("A"); Acord("D"); Acord("A");

^ ^

--0----L----0-----------|--2----2------------|--------------0-----------|

--2----L-------2--------|--3----3------------|-----------2-----2--------|

--2----L----------2-----|--2----2------------|--------2-----------2-----|

--2----L-------------2--|--0----0------------|-----2-----------------0--|

--0----L----------------|--------------------|--0-----------------------|

------------------------|--------------------|--------------------------|

Acord("Asus4"); Acord("A");

-----------------------------|--------------0-----------|

--3--------------2-----------|-----------2-----2--------|

--------2-----------2--------|--------2-----------2-----|

-----------2-----------2-----|-----2-----------------2--|

--------------0-----------0--|--0-----------------------|

-----------------------------|--------------------------|

Acord("D");

--------------------------|-----------2--------------|

--------------------------|--------3-----3-----------|

--------2--------2--------|-----2-----------2--------|

-----2--------2--------2--|--0-----------------0-----|

--0--------2--------4-----|-----------------------0--|

--------------------------|--------------------------|

Acord("E"); Acord("A"); Acord("D");

--------------0-----------|--------------0-----------|-------2------------|

-----------0-----0--------|-----------2-----2--------|--3----3------------|

--------1-----------1-----|--------2-----------2-----|--2-----------------|

-----2-----------------2--|-----2-----------------2--|--------------------|

--------------------------|--0-----------------------|--------------------|

--0-----------------------|--------------------------|--------------------|

Acord("A"); Acord("F#m");

--------------0-----------|---------------2-----------|

-----------2-----2--------|------------2-----2--------|

--------2-----------2-----|---------2-----------2-----|

-----2-----------------0--|------4-----------------4--|

--0-----------------------|---------------------------|

--------------------------|--2------------------------|

Acord("A");

--------------0-----------|--------------------------|

-----------2-----2--------|--------------------------|

--------2-----------2-----|--------2--------2--------|

-----2-----------------0--|-----2--------2--------2--|

--0-----------------------|--0--------2--------4-----|

--------------------------|--------------------------|

Acord("D"); Acord("E");

-----------2--------------|--------------0-----------|

--------3-----3-----------|-----------0-----0--------|

-----2-----------2--------|--------1-----------1-----|

--0-----------------0-----|-----2-----------------2--|

-----------------------0--|--------------------------|

--------------------------|--0-----------------------|

Acord("A");

--------------0-----------||

-----------2-----2--------||

--------2-----------2-----||

-----2-----------------2--||

--0-----------------------||

--------------------------||

Acord("A"); Acord("Asus4");

De vei pleca

Acord("A");

Sã iei cu tine

Acord("D"); Acord("E"); Acord("A"); Acord("D");

Doar nopþile în care noi am fost

Acord("A");

Nemuritor

Acord("F#m"); Acord("A");

Uitarea vine

Acord("D"); Acord("E"); Acord("A");

Te rog sã-mi spui acum ce rost

De vei pleca

De vei pleca

Cerul sã vegheze drumul tãu

De vei pleca

Îþi va fi bine

Un înger îþi va spune visul meu

Asus4: 002230

Get this song at:  amazon.com sheetmusicplus.com

Share your thoughts

0 Comments found