Into The Moat

Into The Moat - Dead Before I Stray guitar tab

Dead Before I Stray

Into The Moat

Lead

Q E Q. Q Q Q E E E E E E E E E E S S S S

D||--------------------------------|----------------------------------------|

A||--------------------------------|--------------------------------5-5-----|

F||----------5-----------6---------|--5--6--5---------------------------6-6-|

C||--6----7---------6---------7----|-----------6--6--7--6-------------------|

G||--------------------------------|-----------------------7--8--5----------|

C||--------------------------------|----------------------------------------|

Q E Q. Q Q Q Q. Q. Q Q Q

--------------------------------|-------------------------------|

--------------------------------|-------------------------------|

----------5-----------6---------|---------5-----------6---------|

--6----7---------6---------7----|--6-------------6---------7----|

--------------------------------|-------------------------------|

--------------------------------|-------------------------------|

E E E E E E E E E E E E E E E E E E Q Q

------------------------------------------------------------------|

--5--4--5---------------------------------------------------------|

-----------5--4--5------------------------------------------------|

--------------------6--5--6-----------------------------0---------|

-----------------------------3--6--3--2--5--2--1--4--1--0---------|

------------------------------------------------------------------|

Q E Q. Q Q Q E E E Q. Q Q Q 3x

|---------------------------------|----------------------------------||

|---------------------------------|----------------------------------||

|*----------5-----------6---------|-----------5-----------6---------*||

|*--0----0---------6---------0----|--0--0--0---------6---------0----*||

|---0----0-------------------0----|--0--0--0-------------------0-----||

|---------------------------------|----------------------------------||

E E E E E E E E E E S S S S Q. Q. Q Q

----------------------------------------|--------------------------|

--------------------------------5-5-----|--------------------------|

--5--6--5---------------------------6-6-|---------5-----------6----|

-----------6--6--7--6-------------------|--6-------------6---------|

-----------------------7--8--5----------|--------------------------|

----------------------------------------|--------------------------|

PM PM

Q Q Q Q. Q E Q Q. Q E Q

-----------------|----------------------|----------------------|

-----------------|----------------------|----------------------|

-----------------|----------------------|----------------------|

-----------------|--3------3----4--3----|--6------6----8--6----|

--0----0----0----|--3------3----4--3----|--6------6----8--6----|

--0----0----0----|----------------------|----------------------|

PM

Q. Q E Q E E E E E E E E

----------------------|----------------------------9-----|

----------------------|----------------------------------|

----------------------|----------------9h--10p--9--------|

--3------3----4--3----|--10h--11p--10--------------------|

--3------3----4--3----|----------------------------------|

----------------------|----------------------------------|

Q Q Q Q Q Q. E Q Q. Q. Q

---------------------------|--------------------------------------|

---------------------------|--------------------------------------|

---------------------------|--8------11--L----12------8------9----|

---------------------------|--7------10--L------------------------|

---------------------------|--6-------9--L------------------------|

---------------------------|--------------------------------------|

E E E E E E Q Q Q Q Q Q

------------------------|--------------------------------|

------------------------|--------------------------------|

-----------------9--12--|--------------------------------|

--9--12--10--13---------|--------------------------------|

------------------------|--------------------------------|

------------------------|--------------------------------|

Q. Q. Q. Q. Q Q E E E E E E

-------------------------------------------|------------------------|

-------------------------------------------|------------------------|

--8------11------13------12------8----9----|-----------------9--12--|

--7------10------12------------------------|--9--12--10--13---------|

--6-------9------11------------------------|------------------------|

-------------------------------------------|------------------------|

Q Q Q Q Q Q

--------------------------------|

--------------------------------|

--------------------------------|

--------------------------------|

--------------------------------|

--------------------------------|

E E E E E E E E E E E E H H

---------------------------------------------------|---------------------|

---------------------------------------------------|---------------------|

--5h--8p--5h--6h--9p--6h--7h--10p--7h--8h--11p--8--|--8--------11--------|

---------------------------------------------------|--7--------10--------|

---------------------------------------------------|--6---------9--------|

---------------------------------------------------|---------------------|

H H Q Q Q E E E E E E

----------------------|------------------|------------------------|

----------------------|------------------|------------------------|

--13--------16--------|--12----8----9----|-----------------9--12--|

--12--------15--------|------------------|--9--12--10--13---------|

--11--------14--------|------------------|------------------------|

----------------------|------------------|------------------------|

E E E E E E E E E E E E

--------------------------|--------------------------|

--------------------------|--------------------------|

------------------10--13--|------------------11--14--|

--10--13--11--14----------|--11--14--12--15----------|

--------------------------|--------------------------|

--------------------------|--------------------------|

|--------3--------|

E E E E E E H H H

--------------------------|-----------------------------|

--------------------------|-----------------------------|

------------------12--15--|-----------------------------|

--12--15--13--16----------|--3--------3--------3--------|

--------------------------|--2--------2--------2--------|

--------------------------|--3--------3--------3--------|

|--------3--------|

Q Q E E Q H H H Q Q E E Q

-----------------------|-----------------------------|-----------------------|

-----------------------|-----------------------------|-----------------------|

------------7--7-------|-----------------------------|------------7--7-------|

--3---------6--6-------|--3--------3--------3--------|--3---------6--6-------|

--2----0----5--5-------|--2--------2--------2--------|--2----0----5--5-------|

--3----0---------------|--3--------3--------3--------|--3----0---------------|

|--------3--------|

E E Q H H H Q Q E E Q

-------------|-----------------------------|-----------------------|

-------------|-----------------------------|-----------------------|

--7--7-------|-----------------------------|------------7--7-------|

--6--6-------|--3--------3--------3--------|--3---------6--6-------|

--5--5-------|--2--------2--------2--------|--2----0----5--5-------|

-------------|--3--------3--------3--------|--3----0---------------|

E E Q Q E E E E Q E E E E E E E E

-------------|------------------------|--------7--10-----------7--|

-------------|------------------------|--6--9---------0--6--9-----|

--7--7-------|-------7--7--7--7-------|---------------------------|

--6--6-------|-------6--6--6--6-------|---------------------------|

--5--5-------|-------5--5--5--5-------|---------------------------|

-------------|------------------------|---------------------------|

|--------3--------|

E E E E E E Q H H H Q

--------------4----------|--------------------4--------7----|

--8--0--6--9-----6-------|-----------6----------------------|

--------------------7----|--4-------------------------------|

-------------------------|----------------------------------|

-------------------------|----------------------------------|

-------------------------|----------------------------------|

E E E E E E E E E E E E E E Q

--------7--10-----------7--|--------------4----------|

--6--9---------0--6--9-----|--8--0--6--9-----6-------|

---------------------------|--------------------7----|

---------------------------|-------------------------|

---------------------------|-------------------------|

---------------------------|-------------------------|

|--------3--------|

H H H Q

--7--------4----------------------|

--------------------6-------------|

-----------------------------4----|

----------------------------------|

----------------------------------|

----------------------------------|

E E E E E E E E E E E Q. E E Q H

---------------------------------------------|----------------------|

---------------------------------------------|----------------------|

---------------------------------------------|----------------------|

----------9--12-----------9-----8------------|-------------8--------|

--9h--10------------9-----------------9------|--9-----9-------------|

---------------------------------------------|----------------------|

H E Q. H E H Q.

-----------------------|--------------------------------|

-----------------------|--------------------------------|

--7--------7s--10------|--9--------9s--12---------------|

-----------------------|--------------------------------|

-----------------------|--------------------------------|

-----------------------|--------------------------------|

Q Q Q Q Q E E E E E E E E

-------------------------------|--------7--10-----------7--|

-------------------11----15----|--6--9---------0--6--9-----|

--12----16---------------------|---------------------------|

-------------------------------|---------------------------|

-------------------------------|---------------------------|

-------------------------------|---------------------------|

|--------3--------|

E E E E E E Q H H H Q

--------------4----------|--------------------4--------7----|

--8--0--6--9-----6-------|-----------6----------------------|

--------------------7----|--4-------------------------------|

-------------------------|----------------------------------|

-------------------------|----------------------------------|

-------------------------|----------------------------------|

E E E E E E E E E E E E E E Q Q Q Q Q

--------7--10-----------7--|--------------4----------|----------------------|

--6--9---------0--6--9-----|--8--0--6--9-----6-------|----------------------|

---------------------------|--------------------7----|----------------------|

---------------------------|-------------------------|----------------------|

---------------------------|-------------------------|--0----0--------------|

---------------------------|-------------------------|--0----0--------------|

Q Q Q Q Q Q Q Q H Q E E E E

----------------------|----------------------|------------------------------|

----------------------|----------------------|------------------------------|

----------------------|----------------------|--13\\--------7----------5--8--|

----------------------|----------------------|--12\\--------6----6--9--------|

--0----0----0----0----|--0-------------------|--11\\--------5----------------|

--0----0----0----0----|--0-------------------|------------------------------|

H Q E E E E E E E E E E E E

------------------------------------|----------------------|

------------------------------------|----------------------|

--13\\--------7----------5--8--6--9--|---------6--9--7--10--|

--12\\--------6----6--9--------------|--7--10---------------|

--11\\--------5----------------------|----------------------|

------------------------------------|----------------------|

H Q E E E E Q. Q. Q. Q. Q. Q.

------------------------------|------------------------------------------------|

------------------------------|------------------------------------------------|

--13\\--------7----------5--8--|--13------6------13------7------13------17------|

--12\\--------6----6--9--------|--12------5------12------6------12------16------|

--11\\--------5----------------|--11------4------11------5------11------15------|

------------------------------|------------------------------------------------|

S E. Q S E. Q S E. Q S E. Q S E. Q S E. Q

-----------------------------------|-----------------------------------|

-----------------------------------|-----------------------------------|

-----------------------------------|-----------------------------------|

-----------------------------------|-----------------------------------|

--0-0---L----0-0---L----0-0---L----|--0-0---L----0-0---L----0-0---L----|

--0-0---L----0-0---L----0-0---L----|--0-0---L----0-0---L----0-0---L----|

E E E E E E E E E E E E E E E E E E

---------------------|-----------------------|------------------------|

---------------------|-----------------------|------------------------|

---------------6--9--|----------------7--10--|-----------------8--11--|

--6--9--8--11--------|--7--10--9--12---------|--8--11--10--13---------|

---------------------|-----------------------|------------------------|

---------------------|-----------------------|------------------------|

Q Q Q Q Q Q Q Q Q E E E E E E

-----------------|-----------------|-----------------|-----------------------|

-----------------|-----------------|-----------------|--4s--5--5s--6--6s--7--|

-----------------|-----------------|-----------------|-----------------------|

-----------------|-----------------|-----------------|--5s--6--6s--7--7s--8--|

-----------------|-----------------|-----------------|-----------------------|

-----------------|-----------------|-----------------|-----------------------|

Q Q E E E E Q Q E E E E E E E E

-------------------4s--5--|-------------------|------------------------|

------------4s--6---------|------------4s--5--|--5s--6--6s--7--7s---9--|

-------------------5s--6--|-------------------|------------------------|

------------5s--7---------|------------5s--6--|--6s--7--7s--8--8s--10--|

--------------------------|-------------------|------------------------|

--------------------------|-------------------|------------------------|

E E Q Q E E E E E E Q Q E E

---------------------|-----------------------|-------------------|

---9s--10------------|--4s--5--5s--6--6s--7--|------------4s--6--|

---------------------|-----------------------|-------------------|

--10s--11------------|--5s--6--6s--7--7s--8--|------------5s--7--|

---------------------|-----------------------|-------------------|

---------------------|-----------------------|-------------------|

E E Q Q E E E E E E E E E E E E E E

--4s--5------------|--------------------------------------------------------|

-------------------|--4s--5--5s--6--6s--7--7s--8--8s---9---9s--10--10s--11--|

--5s--6------------|--------------------------------------------------------|

-------------------|--5s--6--6s--7--7s--8--8s--9--9s--10--10s--11--11s--12--|

-------------------|--------------------------------------------------------|

-------------------|--------------------------------------------------------|

Q Q Q Q Q Q Q Q Q Q Q Q Q

----------------------|---------------------------|----------------------|

----------------------|---------------------------|----------------------|

----------------------|---------------------------|----------------------|

----------------------|---------------------------|----------------------|

--3----3--------------|--3----3----3----3----3----|----------------------|

--3----3--------------|--3----3----3----3----3----|----------------------|

Q Q Q Q Q Q Q Q Q Q Q Q

----------------------|----------------------|----------------------|

----------------------|----------------------|----------------------|

----------------------|----------------------|----------------------|

----------------------|----------------------|----------------------|

----------------------|--3----3---------3----|--3----0----0----0----|

----------------------|--3----3---------3----|--3----0----0----0----|

|----3----| |----3----|

Q Q Q Q Q Q Q Q Q Q Q

-------------------------------------|----------------------|

-------------------------------------|----------------------|

--------------------------------9----|----------------------|

-----------------5----6----7---------|----------------------|

--5----6----7------------------------|--0----0---------0----|

-------------------------------------|--0----0---------0----|

Q Q Q Q Q Q Q H Q Q Q Q

---------------------------|---------------------|----------------------|

---------------------------|---------------------|----------------------|

---------------------------|---------------------|----------------------|

---------------------------|---------------------|----------------------|

--0----0----0----0---------|--0----0----L--------|--0----0----0----0----|

--0----0----0----0---------|--0----0----L--------|--0----0----0----0----|

W W Q Q H

-------------------|-------------------|---------------------|

-------------------|-------------------|---------------------|

-------------------|-------------------|---------------------|

-------------------|-------------------|---------------------|

--0----------------|--L----------------|--0----0----L--------|

--0----------------|--L----------------|--0----0----L--------|

Q Q Q Q W W

----------------------|-------------------|-------------------|

----------------------|-------------------|-------------------|

----------------------|-------------------|-------------------|

----------------------|-------------------|-------------------|

--0----0----0----0----|--0----------------|--L----------------|

--0----0----0----0----|--0----------------|--L----------------|

/1\\

Q Q H Q Q Q Q W

---------------------|----------------------|-------------------|

---------------------|----------------------|-------------------|

---------------------|----------------------|-------------------|

--5----5----L--------|--5----5----5----5----|--5----------------|

--3----3----L--------|--3----3----3----3----|--3----------------|

--3----3----L--------|--3----3----3----3----|--3----------------|

W Q Q H Q Q Q Q

-------------------|---------------------|----------------------|

-------------------|---------------------|----------------------|

-------------------|---------------------|----------------------|

--L----------------|---------------------|----------------------|

--L----------------|--0----0----L--------|--0----0----0----0----|

--L----------------|--0----0----L--------|--0----0----0----0----|

W Q Q Q Q E E E E E E E E E E

-------------------|----------------------|----------------------------------|

-------------------|----------------------|----------------------------------|

-------------------|----------------------|-----------6--6--6--------10--10--|

-------------------|----------------------|--4--4--4-----------7--7----------|

--0----------------|--L----0----0---------|----------------------------------|

--0----------------|--L----0----0---------|----------------------------------|

|--------3--------|

H H H Q E E E E E E E E E E

-----------------------------10----|----------------------------------|

-----------9--------8--------------|----------------------------------|

--7--------------------------------|-----------6--6--6--------10--10--|

-----------------------------------|--4--4--4-----------7--7----------|

-----------------------------------|----------------------------------|

-----------------------------------|----------------------------------|

|--------3--------|

H H H Q E E E E E E E E

-----------------------------10----|-----------------------------|

-----------9--------8--------------|-----------------------------|

--7--------------------------------|-----------------------7--7--|

-----------------------------------|--10--10--10--7--7--7--------|

-----------------------------------|-----------------------------|

-----------------------------------|-----------------------------|

E E E S S E S S E S S Q E E E E E E E E E E

---------------------------------------|-----------------------------------|

---------------------------------------|-----------------------------------|

-----8--11--8-8-10--7-7-11--8-8-11\\----|-----------------------7--7--8--8--|

---------------------------------------|--10--10--10--7--7--7--------------|

---------------------------------------|-----------------------------------|

---------------------------------------|-----------------------------------|

E E E E E E E E E E

-------------------------------------||

-------------------------------------||

-----------------------9--9--12--12--||

--12--12--12--9--9--9----------------||

-------------------------------------||

-------------------------------------||

Duration Legend

---------------

W - whole

H - half

Q - quarter

E - 8th

S - 16th

T - 32nd

X - 64th

. - note dotted

|-n-| - n-tuplets

Tablature Legend

----------------

L - tied note

x - dead note

g - grace note

(n) - ghost note

> - accentuded note

NH - natural harmonic

AH - artificial harmonic

TH - tapped harmonic

SH - semi harmonic

PH - pitch harmonic

h - hammer on

p - pull off

b - bend

br - bendRelease

pb - preBend

pbr - preBendRelease

brb - bendReleaseBend

\

/ - tremolo bar dip

\

- tremolo bar dive

-/n - tremolo bar Release up

/n\\ - tremolo bar inverted dip

/n - tremolo bar return

-\

- tremolo bar Release down

S - shift slide

s - legato slide

/ - slide into from below or out of upwards

\\ - slide into from above or out of downwards

~ - vibrato

W - wide vibrato

tr - trill

TP - tremolo picking

T - tapping

S - slap

P - pop

Added by tabs-database.com and our distinguished partners

Get this song at:  amazon.com sheetmusicplus.com

Share your thoughts

0 Comments found