Into The Moat

Into The Moat - Century I guitar tab

#----------------------------------PLEASE NOTE---------------------------------#

#This file is the author's own work and represents their interpretation of the #

#song. You may only use this file for private study, scholarship, or research. #

#------------------------------------------------------------------------------#

CENTURY I

Gtr I (C G C G C E)

Gtr II (C G C G C E)

Q=227

4/4

Gtr I

E S S +S S E S E S S E S S E S S E S E S S S S S S

|-----------------------------|----------------------------------|

|-----------------------------|----------------------------------|

|-----------------13-----13---|---13-----13----------------------|

|-----0-(0)-------13-----13---|---13-----13----------------------|

|-----0-(0)-------13-----13---|---13-----13-------10-10-10-10-12-|

|-----0-(0)-------------------|----------------------------------|

|

| Gtr II

| E S S +S S E S E S S E S S E S S E S E S S S S S S

|-----------------------------|----------------------------------|

|-----------------------------|----------------------------------|

|-----------------13-----13---|---13-----13----------------------|

|-----0-(0)-------13-----13---|---13-----13----------------------|

|-----0-(0)-------13-----13---|---13-----13----------------------|

|-----0-(0)-------------------|--------------------5--5--5--5--8-|

S S S S S S S S S S S S S E S S E S S E S S E S +S S E

|--------------------------------------|-----------------------------------|

|--------------------------------------|-----------------------------------|

|--------------------------------------|-----------------------------------|

|--------------------------------------|-------16----------------0-(0)-----|

|-12-12-12-9-9-9-9-9-9-9-9-10-12-13-15-|-17-18----18-17----------0-(0)-----|

|--------------------------------------|----------------20-19-17-0-(0)-----|

|

| S S S S S S S S S S S S S E S S E S S E S S E S +S S E

|--------------------------------------|-----------------------------------|

|--------------------------------------|-----------------------------------|

|--------------------------------------|-----------------------------------|

|---------------------------5--7--8-10-|-12-13-16----------------0-(0)-----|

|----------5-5-5-5-6-6-6-6-------------|----------18-17----------0-(0)-----|

|--8--8--8-----------------------------|----------------20-19-17-0-(0)-----|

S E S S E S S E S S E S E S S S S S S S S S S S S S S

|-----------------------------|--------------------------------------------|

|-----------------------------|--------------------------------------------|

|-----------------------------|--------------------------------------------|

|---20-----20-----20-----20---|--------------------------------------------|

|---18-----18-----18-----18---|--------------------------------------------|

|---20-----20-----20-----20---|-----17-17-17-17-19-19-19-19-16-16-16-16-16-|

|

| S E S S E S S E S S E S E S S S S S S S S S S S S S S

|-----------------------------|--------------------------------------------|

|-----------------------------|--------------------------------------------|

|-----------------------------|--------------------------------------------|

|---20-----20-----20-----20---|--------------------------------------------|

|---18-----18-----18-----18---|------------------------------5--5--5--5--6-|

|---20-----20-----20-----20---|------5--5--5--5--8--8--8--8----------------|

S S S S S E S S E S +S S E S E S S E S S E S S E S

|--------------------------------------|----4------4------4------4---|

|--------------------------1-----------|----1------1------1------1---|

|--------------------------------------|----1------1------1------1---|

|----------------------------0-(0)-----|-----------------------------|

|----------------------------0-(0)-----|-----------------------------|

|-16-16-16-17-19-20-22-24----0-(0)-----|-----------------------------|

|

| S S S S S E S S E S +S S E S E S S E S S E S S E S

|--------------------------------------|-----------------------------|

|--------------------------------------|-----------------------------|

|--------------------------------------|---13-----13-----13-----13---|

|-----------5--7--8-10-12-13-0-(0)-----|---13-----13-----13-----13---|

|--6--6--6-------------------0-(0)-----|---13-----13-----13-----13---|

|----------------------------0-(0)-----|-----------------------------|

E S S S S S S S S S S S S S S S S S S S E S S E S S E S

|-------------------------------|-------------------------------------|

|-------------------------------|-------------------------------------|

|-------------------------------|-------------------------------------|

|-----5-5-5-5-7-7-7-7-----------|-------------------------16----------|

|---------------------9-9-9-9-9-|-9-9-9-10-12-13-15-17-18----18-17----|

|-------------------------------|----------------------------------20-|

|

| E S S S S S S S S S S S S S S S S S S S E S S E S S E S

|-------------------------------|-------------------------------------|

|-------------------------------|-------------------------------------|

|-------------------------------|-------------------------------------|

|-------------------------------|--------5--7--8-10-12-13-16----------|

|---------------------5-5-5-5-6-|-6-6-6----------------------18-17----|

|-----5-5-5-5-8-8-8-8-----------|----------------------------------20-|

S E S +S S E S E S S E S S E S S E S E S S S S S S

|-------------------------------|----------------------------------|

|-------------------------------|----------------------------------|

|-------------------------------|----------------------------------|

|-------0-(0)-------20-----20---|---20-----20----------------------|

|-------0-(0)-------18-----18---|---18-----18----------------------|

|-19-17-0-(0)-------20-----20---|---20-----20-------17-17-17-17-19-|

|

| S E S +S S E S E S S E S S E S S E S E S S S S S S

|-------------------------------|----------------------------------|

|-------------------------------|----------------------------------|

|-------------------------------|----------------------------------|

|-------0-(0)-------20-----20---|---20-----20----------------------|

|-------0-(0)-------18-----18---|---18-----18----------------------|

|-19-17-0-(0)-------20-----20---|---20-----20--------5--5--5--5--8-|

S S S S S S S S S S S S S E S

|----------------------------------------------|

|----------------------------------------------|

|----------------------------------------------|

|----------------------------------------------|

|----------------------------------------------|

|-19-19-19-16-16-16-16-16-16-16-16-17-19-20-22-|

|

| S S S S S S S S S S S S S E S

|----------------------------------------------|

|----------------------------------------------|

|----------------------------------------------|

|-----------------------------------5--7--8-10-|

|-----------5--5--5--5--6--6--6--6-------------|

|--8--8--8-------------------------------------|

S E S S E S S E S S E S

|-------------------------------------|

|-----1-------------------------------|

|-------------------------------------|

|--------5--7--8-10-12-13-16----------|

|----------------------------18-17----|

|-24-------------------------------20-|

|

| S E S S E S S E S S E S

|-------------------------------------|

|-------------------------------------|

|-------------------------------------|

|-12-13-------------------16----------|

|-------10-12-13-15-17-18----18-17----|

|----------------------------------20-|

Gtrs I, II

S E S S E S S E S S E S S E S +E. S S S S S +S E S

|------------------------0-------|-----------------------------|

|----------------------1---1-0---|-----------------------------|

|------------------------------1-|-0---5-(5)-------------------|

|--------------------------------|---5-0-(0)-------------------|

|--------------------------------|-----------------------------|

|-19-17-17-19-20-22-24-----------|-----------0-0-0-0-0-(0)---0-|

S S S S +S E S +S E S +S E S

|---------------------------------|

|---------------------------------|

|-------5-(5)---5-(5)---5-(5)---6-|

|-------0-(0)---0-(0)---0-(0)-----|

|-------------------------------6-|

|-0-0-0---------------------------|

+S E S +Q +E. S +E. S S S S S +S E S S S S S +S E S

|--------------------------|---------------------------------|

|--------------------------|---------------------------------|

|-(6)--------------5-(5)---|-----------------------5-(5)---5-|

|-------8-(8)--(8)-0-(0)---|-----------------------0-(0)---0-|

|-(6)----------------------|---------------------------------|

|-------8-(8)--(8)-------0-|-0-0-0-0-(0)---0-0-0-0-----------|

+S E S +S E S +S E S +Q

|-------------------------------|

|-------------------------------|

|-(5)---5-(5)---6-(6)-----------|

|-(0)---0-(0)-----------8-(8)---|

|---------------6-(6)-----------|

|-----------------------8-(8)---|

+E. S +E. S S S S S +S E S

|-----------------------------|

|-----------------------------|

|-----5-(5)-------------------|

|-(8)-0-(0)-------------------|

|-----------------------------|

|-(8)-------0-0-0-0-0-(0)---0-|

S S S S +S E S +S E S +S E S +S E S +Q +E. S +E. S

|---------------------------------|--------------------------|

|---------------------------------|--------------------------|

|-------5-(5)---5-(5)---5-(5)---6-|-(6)--------------5-(5)---|

|-------0-(0)---0-(0)---0-(0)-----|-------8-(8)--(8)-0-(0)---|

|-------------------------------6-|-(6)----------------------|

|-0-0-0---------------------------|-------8-(8)--(8)-------0-|

Gtr I

+S E S S E S +S E S S E S S E S S E S S E S S E S

|-----------------------------|---------------------------|

|---------------------5-4-----|---------------------------|

|-------------------------6-5-|-3-1-0---------------------|

|-----------------------------|-------5-4-----------------|

|-----------------------------|-----------6-5-3-----------|

|-(0)-0-----0-0-(0)-0---------|-----------------0--0--0-0-|

|

| Gtr II

| +S E S S E S +S E S S E S S E S S E S S E S +S E S

|-----------------------------|---------------------------|

|---------------------5-4-----|-----------------4-(4)-----|

|-------------------------6-5-|-3-1-0-----------------6-5-|

|-----------------------------|-------5-4-----------------|

|-----------------------------|-----------6-5-3-----------|

|-(0)-0-----0-0-(0)-0---------|---------------------------|

S E S +Q +E. S S E S

|----------------------------------|

|----------------------------------|

|-------1-(1)-----(1)--------------|

|----------------------------------|

|-------1-(1)-----(1)--------------|

|--0--0-----------------0--0--0-0--|

|

| +S E S +S E S +S E S +S E S

|----------------------------------|

|-------4-(4)-----------4-(4)------|

|-(5)-6-------6-5-(5)-6-------6-5--|

|----------------------------------|

|----------------------------------|

|----------------------------------|

S E S +Q +E. S S E S S E S +Q +E. S S E S

|---------------------------------|---------------------------------|

|---------------------------------|---------------------------------|

|-------1-(1)-----(1)-------------|-------1-(1)-----(1)-------------|

|---------------------------------|---------------------------------|

|-------1-(1)-----(1)-------------|-------1-(1)-----(1)-------------|

|--0--0-----------------0--0--0-0-|--0--0-----------------0--0--0-0-|

|

| +S E S +S E S +S E S +S E S +S E S +S E S +S E S +S E S

|---------------------------------|---------------------------------|

|-------4-(4)-----------4-(4)-----|-------4-(4)-----------4-(4)-----|

|-(5)-6-------6-5-(5)-6-------6-5-|-(5)-6-------6-5-(5)-6-------6-5-|

|---------------------------------|---------------------------------|

|---------------------------------|---------------------------------|

|---------------------------------|---------------------------------|

S E S +Q +E. S +Q

|----------------------------------|

|----------------------------------|

|-------1-(1)-----(1)---0-(0)------|

|----------------------------------|

|-------1-(1)-----(1)---0-(0)------|

|--0--0----------------------------|

|

| +S E S +S E S +S E S +S E S

|----------------------------------|

|-------4-(4)----------------------|

|-(5)-6-------6-5-(5)-6-3-(3)-5-6--|

|----------------------------------|

|----------------------------------|

|----------------------------------|

+E. S S E S S E S +Q +E. S S E S S E S +Q

|---------------------------------|---------------------------------|

|---------------------------------|---------------------------------|

|-(0)-------------------0-(0)-----|-(0)-------------------0-(0)-----|

|---------------------------------|---------------------------------|

|-(0)-------------------0-(0)-----|-(0)-------------------0-(0)-----|

|-------0--0--0-0--0--0-----------|-------0--0--0-0--0--0-----------|

|

| +S E S +S E S +S E S +S E S +S E S +S E S +S E S +S E S

|---------------------------------|---------------------------------|

|---------------------------------|---------------------------------|

|-(6)-5-3-(3)-5-6-(6)-5-3-(3)-5-6-|-(6)-5-3-(3)-5-6-(6)-5-3-(3)-5-6-|

|---------------------------------|---------------------------------|

|---------------------------------|---------------------------------|

|---------------------------------|---------------------------------|

+E. S S E S S E S +Q

|----------------------------------|

|----------------------------------|

|-(0)-------------------0-(0)------|

|----------------------------------|

|-(0)-------------------0-(0)------|

|-------0--0--0-0--0--0------------|

|

| +S E S +S E S +S E S +S E S

|----------------------------------|

|----------------------------------|

|-(6)-5-3-(3)-5-6-(6)-5-3-(3)-5-6--|

|----------------------------------|

|----------------------------------|

|----------------------------------|

+E. S S E S S E S +Q +E. S S E S S E S +Q

|---------------------------------|---------------------------------|

|---------------------------------|---------------------------------|

|-(0)-------------------1-(1)-----|-(1)-------------------1-(1)-----|

|---------------------------------|---------------------------------|

|-(0)-------------------1-(1)-----|-(1)-------------------1-(1)-----|

|-------0--0--0-0--0--0-----------|-------0--0--0-0--0--0-----------|

|

| +S E S +S E S +S E S +S E S +S E S +S E S +S E S +S E S

|---------------------------------|---------------------------------|

|-------4-(4)-----------4-(4)-----|-------4-(4)-----------4-(4)-----|

|-(6)-5-------6-5-(5)-6-------6-5-|-(5)-6-------6-5-(5)-6-------6-5-|

|---------------------------------|---------------------------------|

|---------------------------------|---------------------------------|

|---------------------------------|---------------------------------|

+E. S S E S S E S +Q

|----------------------------------|

|----------------------------------|

|-(1)-------------------1-(1)------|

|----------------------------------|

|-(1)-------------------1-(1)------|

|-------0--0--0-0--0--0------------|

|

| +S E S +S E S +S E S +S E S

|----------------------------------|

|-------4-(4)-----------4-(4)------|

|-(5)-6-------6-5-(5)-6-------6-5--|

|----------------------------------|

|----------------------------------|

|----------------------------------|

+E. S S E S S E S +Q +E. S +Q +E. S S E S

|---------------------------------|---------------------------------|

|---------------------------------|---------------------------------|

|-(1)-------------------1-(1)-----|-(1)---0-(0)-----(0)-------------|

|---------------------------------|---------------------------------|

|-(1)-------------------1-(1)-----|-(1)---0-(0)-----(0)-------------|

|-------0--0--0-0--0--0-----------|-----------------------0--0--0-0-|

|

| +S E S +S E S +S E S +S E S +S E S +S E S +S E S +S E S

|---------------------------------|---------------------------------|

|-------4-(4)-----------4-(4)-----|---------------------------------|

|-(5)-6-------6-5-(5)-6-------6-5-|-(5)-6-3-(3)-5-6-(6)-5-3-(3)-5-6-|

|---------------------------------|---------------------------------|

|---------------------------------|---------------------------------|

|---------------------------------|---------------------------------|

S E S +Q +E. S S E S

|----------------------------------|

|----------------------------------|

|-------0-(0)-----(0)--------------|

|----------------------------------|

|-------0-(0)-----(0)--------------|

|--0--0-----------------0--0--0-0--|

|

| +S E S +S E S +S E S +S E S

|----------------------------------|

|----------------------------------|

|-(6)-5-3-(3)-5-6-(6)-5-3-(3)-5-6--|

|----------------------------------|

|----------------------------------|

|----------------------------------|

S E S +Q +E. S S E S S E S +Q +E. S +S E S

|---------------------------------|-----------------------0-(0)-----|

|---------------------------------|-----------------------------1-0-|

|-------0-(0)-----(0)-------------|-------0-(0)-----(0)-------------|

|---------------------------------|---------------------------------|

|-------0-(0)-----(0)-------------|-------0-(0)-----(0)-------------|

|--0--0-----------------0--0--0-0-|--0--0---------------------------|

|

| +S E S +S E S +S E S +S E S +S E S +S E S +S E S +S E S

|---------------------------------|---------------------------------|

|---------------------------------|-----------------------4-(4)-----|

|-(6)-5-3-(3)-5-6-(6)-5-3-(3)-5-6-|-(6)-5-3-(3)-5-6-(6)-5-------6-5-|

|---------------------------------|---------------------------------|

|---------------------------------|---------------------------------|

|---------------------------------|---------------------------------|

+S E S +S E S +S E S +S E S

|-------0-(0)-----------0-(0)------|

|-(0)-1-------1-0-(0)-1-------1-0--|

|----------------------------------|

|----------------------------------|

|----------------------------------|

|----------------------------------|

|

| +S E S +S E S +S E S +S E S

|----------------------------------|

|-------4-(4)-----------4-(4)------|

|-(5)-6-------6-5-(5)-6-------6-5--|

|----------------------------------|

|----------------------------------|

|----------------------------------|

+S E S S E S S E S Q E S S S E S S E S Q

|---------------------------------|-----------------------------------|

|-(0)-1---------------------------|-----------------------------------|

|---------------------------------|-----------------------------------|

|---------------------------------|-----------------------------------|

|---------------------------------|-----------------------------------|

|-------0--0--0-0--0--0-----------|---------0--0--0-0--0--0-----------|

|

| +S E S +S E S +S E S +S E S +S E S +S E S +S E S +S E S

|---------------------------------|-----------------------------------|

|-------4-(4)-----------4-(4)-----|---------4-(4)-----------4-(4)-----|

|-(5)-6-------6-5-(5)-6-------6-5-|-(5)-6---------6-5-(5)-6-------6-5-|

|---------------------------------|-----------------------------------|

|---------------------------------|-----------------------------------|

|---------------------------------|-----------------------------------|

E S S S E S S E S Q

|------------------------------------|

|------------------------------------|

|------------------------------------|

|------------------------------------|

|------------------------------------|

|---------0--0--0-0--0--0------------|

|

| +S E S +S E S +S E S +S E S

|------------------------------------|

|---------4-(4)-----------4-(4)------|

|-(5)-6---------6-5-(5)-6-------6-5--|

|------------------------------------|

|------------------------------------|

|------------------------------------|

E S S S E S S E S E S S

|-------------------------------------|

|-------------------------------------|

|-----------------------------------1-|

|-------------------------------------|

|-----------------------------------1-|

|---------0--0--0-0--0--0-------------|

|

| +S E S +S E S +S E S +S E S

|-------------------------------------|

|---------4-(4)-----------4-(4)-------|

|-(5)-6---------6-5-(5)-6-------6---5-|

|-------------------------------------|

|-------------------------------------|

|-------------------------------------|

+E. S S E S S E S Q E S S S E S S E S Q

|---------------------------------|-----------------------------------|

|---------------------------------|-----------------------------------|

|-(1)-----------------------------|-----------------------------------|

|---------------------------------|-----------------------------------|

|-(1)-----------------------------|-----------------------------------|

|-------0--0--0-0--0--0-----------|---------0--0--0-0--0--0-----------|

|

| +S E S +S E S +S E S +S E S +S E S +S E S +S E S +S E S

|---------------------------------|-----------------------------------|

|---------------------------------|-----------------------------------|

|-(5)-6-3-(3)-5-6-(6)-5-3-(3)-5-6-|-(6)-5---3-(3)-5-6-(6)-5-3-(3)-5-6-|

|---------------------------------|-----------------------------------|

|---------------------------------|-----------------------------------|

|---------------------------------|-----------------------------------|

E S S S E S S E S Q

|-----------------------------------|

|-----------------------------------|

|-----------------------------------|

|-----------------------------------|

|-----------------------------------|

|---------0--0--0-0--0--0-----------|

|

| +S E S +S E S +S E S +S E S

|-----------------------------------|

|-----------------------------------|

|-(6)-5---3-(3)-5-6-(6)-5-3-(3)-5-6-|

|-----------------------------------|

|-----------------------------------|

|-----------------------------------|

E S S S E S S E S E S S +E. S +E E E. S +Q

|-------------------------------------|--------------------------|

|-------------------------------------|--------------------------|

|-----------------------------------1-|-(1)--------------1-(1)---|

|-------------------------------------|------------------3-(3)---|

|-----------------------------------1-|-(1)--------------1-(1)---|

|---------0--0--0-0--0--0-------------|-------0-(0)-0-0----------|

|

| +S E S +S E S +S E S +S E S +S E S +E E E. S +Q

|-------------------------------------|--------------------------|

|-------------------------------------|--------------------------|

|-(6)-5---3-(3)-5-6-(6)-5-3-(3)-5---6-|-(6)-5--------------------|

|-------------------------------------|------------------8-(8)---|

|-------------------------------------|------------------8-(8)---|

|-------------------------------------|-------0-(0)-0-0--8-(8)---|

+E. S +E E E. S +Q +E. S +E E E. S +Q

|-----------------------|-----------------------|

|-----------------------|-----------------------|

|-(1)------------1-(1)--|-(1)------------1-(1)--|

|-(3)------------3-(3)--|-(3)------------3-(3)--|

|-(1)------------1-(1)--|-(1)------------1-(1)--|

|-----0-(0)-0-0---------|-----0-(0)-0-0---------|

|

| +E. S +E E E. S +Q +E. S +E E E. S +Q

|-----------------------|-----------------------|

|-----------------------|-----------------------|

|-----------------------|-----------------------|

|-(8)------------8-(8)--|-(8)------------8-(8)--|

|-(8)------------8-(8)--|-(8)------------8-(8)--|

|-(8)-0-(0)-0-0--8-(8)--|-(8)-0-(0)-0-0--8-(8)--|

+E. S +E E E. S +Q +E. S +E E E. S +Q

|-----------------------|-----------------------|

|-----------------------|-----------------------|

|-(1)------------1-(1)--|-(1)------------0-(0)--|

|-(3)------------3-(3)--|-(3)-------------------|

|-(1)------------1-(1)--|-(1)------------0-(0)--|

|-----0-(0)-0-0---------|-----0-(0)-0-0---------|

|

| +E. S +E E E. S +Q +E. S +E E E. S +Q

|-----------------------|-----------------------|

|-----------------------|-----------------------|

|-----------------------|----------------5-(5)--|

|-(8)------------8-(8)--|-(8)------------0-(0)--|

|-(8)------------8-(8)--|-(8)-------------------|

|-(8)-0-(0)-0-0--8-(8)--|-(8)-0-(0)-0-0---------|

+E. S +E E E. S +Q +E. S +E E E. S +Q

|-----------------------|-----------------------|

|-----------------------|-----------------------|

|-(0)------------0-(0)--|-(0)------------0-(0)--|

|-----------------------|-----------------------|

|-(0)------------0-(0)--|-(0)------------0-(0)--|

|-----0-(0)-0-0---------|-----0-(0)-0-0---------|

|

| +E. S +E E E. S +Q +E. S +E E E. S +Q

|-----------------------|-----------------------|

|-----------------------|-----------------------|

|-(5)------------5-(5)--|-(5)------------5-(5)--|

|-(0)------------0-(0)--|-(0)------------0-(0)--|

|-----------------------|-----------------------|

|-----0-(0)-0-0---------|-----0-(0)-0-0---------|

+E. S +E E E. S +Q +E. S +Q +S E. +E. S

|-----------------------|-----5-(5)--(5)-5--(5)-5-|

|-----------------------|-----8-(8)--(8)-8--(8)-8-|

|-(0)------------0-(0)--|-(0)---------------------|

|-----------------------|-------------------------|

|-(0)------------0-(0)--|-(0)---------------------|

|-----0-(0)-0-0---------|-------------------------|

|

| +E. S +E E E. S +Q +Q Q H

|-----------------------|-------------------------|

|-----------------------|-------------------------|

|-(5)------------5-(5)--|-(5)---------------------|

|-(0)------------0-(0)--|-(0)---------------------|

|-----------------------|-------------------------|

|-----0-(0)-0-0---------|-------------------------|

Gtrs I, II

+Q +S E. +E. S +Q +S E. +E. S +Q +S E.

|-(5)--(5)-5--(5)-5-(5)--|-(5)-5--(5)-5-(5)--(5)-5--|

|-(8)--(8)-8--(8)-8-(8)--|-(8)-8--(8)-8-(8)--(8)-8--|

|------------------------|--------------------------|

|------------------------|--------------------------|

|------------------------|--------------------------|

|------------------------|--------------------------|

+E. S +E E E. S +E E E. S +E E E. S +E E

|-(5)---------------------|-----------------------|

|-(8)---------7-----------|-----------------------|

|-----------6----9-(9)----|------------6--3-(3)---|

|-----7-(7)------------10-|----------7----------4-|

|-------------------------|-9--6-(6)--------------|

|-------------------------|-----------------------|

Gtr I

E. S +Q +E. S +Q +E. S +S E S E E S E S

|----------------------|----------------3----6---------|

|---------------4-(4)--|-(4)-------1-------------4-----|

|----3-(3)--(3)-3-(3)--|-(3)-0-(0)-------------------3-|

|----4-(4)--(4)-4-(4)--|-(4)---------------------------|

|-3--3-(3)--(3)--------|-------------------------------|

|----------------------|-------------------------------|

|

| Gtr II

| E. S +Q +E. S +Q +E. S +Q +S S E E S S

|----------------------|-------------------------------|

|---------------4-(4)--|-(4)---------------------------|

|----3-(3)--(3)-3-(3)--|-(3)-0-(0)-----(0)-----------0-|

|----4-(4)--(4)-4-(4)--|-(4)-1-(1)-----(1)-----------1-|

|-3--3-(3)--(3)--------|-----0-(0)-----(0)-----------0-|

|----------------------|-------------------------------|

+S E S E E S E S +S E S

|----------3----9-----------------|

|-----1-------------10------------|

|-(3)------------------9-(9)-6----|

|------------------------------7--|

|---------------------------------|

|---------------------------------|

|

| +Q +S S E S E S S E S

|---------------------------------|

|--------------------1-------1----|

|-(0)-----(0)--------0-------0----|

|-(1)-----(1)--------1-------1----|

|-(0)-----(0)---------------------|

|---------------------------------|

+S E S E E S E S +S E S

|-------------6-------------------|

|---------7---------4---------1---|

|-----6-----------------3-(3)-----|

|-(7)-----------------------------|

|---------------------------------|

|---------------------------------|

|

| S E S S E S E S S +Q

|---------------------------------|

|-----1-----1---------------------|

|-----0-----0-----------3-(3)-----|

|-----1-----1-----------4-(4)-----|

|-----------------------3-(3)-----|

|---------------------------------|

E E S E S +S E S +S E S E E S E S +S E S E E

|--3--9----------------------------|------6-----------------3----9--|

|-------------10-------------------|-7----------4-------1-----------|

|----------------9-(9)-6-------6---|--------------3-(3)-------------|

|------------------------7-(7)-----|--------------------------------|

|----------------------------------|--------------------------------|

|----------------------------------|--------------------------------|

|

| +E. S +Q +E. S +S E S S E. +E. S +S E S S E.

|----------------------------------|--------------------------------|

|-------4-(4)------(4)-------------|---1----(1)---------------1-----|

|-(3)---3-(3)------(3)-------------|---0----(0)---------------0-----|

|-(4)---4-(4)------(4)-------------|---1----(1)---------------1-----|

|-(3)------------------------------|--------------------------------|

|------------------------0-(0)-0---|--------------0-(0)-0-----------|

S E S +S E S +S E S E E

|----------------------------------6---|

|-----10----------------------7--------|

|----------9-(9)-6-------6-------------|

|------------------7-(7)---------------|

|--------------------------------------|

|--------------------------------------|

|

| +S S S S +S E S +S E S +S E S

|--------------------------------------|

|-(1)------1-(1)---1-(1)---1-(1)-----1-|

|-(0)--0---0-(0)---0-(0)---0-(0)-----0-|

|-(1)--1---1-(1)---1-(1)---1-(1)-----1-|

|--------------------------------------|

|--------------------------------------|

S E S +S E S E E S E S +S E S +S E S E E S E S

|--------------------3--9------------|-----------------------6-----------|

|-----4---------1---------------10---|------------------7--------4-------|

|---------3-(3)--------------------9-|-(9)-6-------6-----------------3---|

|------------------------------------|-------7-(7)-----------------------|

|------------------------------------|-----------------------------------|

|------------------------------------|-----------------------------------|

|

| +S S S S +Q +E. S +Q +E. S +Q +S S E E S S

|------------------------------------|-----------------------------------|

|-(1)-1-------------------4-(4)------|-(4)-------------------------------|

|-(0)-0---3-(3)-----(3)---3-(3)------|-(3)---0-(0)-----(0)-----------0---|

|-(1)-1---4-(4)-----(4)---4-(4)------|-(4)---1-(1)-----(1)-----------1---|

|---------3-(3)-----(3)--------------|-------0-(0)-----(0)-----------0---|

|------------------------------------|-----------------------------------|

+S E S E E S E S +S E S +S E S E E S E S +S E S

|----------3----9----------------|-------------6-------------------|

|-----1-------------10-----------|---------7---------4---------1---|

|-(3)------------------9-(9)-6---|-----6-----------------3-(3)-----|

|------------------------------7-|-(7)-----------------------------|

|--------------------------------|---------------------------------|

|--------------------------------|---------------------------------|

|

| +Q +S S E S E S S E S S E S S E S E S S +Q

|--------------------------------|---------------------------------|

|--------------------1-------1---|-----1-----1---------------------|

|-(0)-----(0)--------0-------0---|-----0-----0-----------3-(3)-----|

|-(1)-----(1)--------1-------1---|-----1-----1-----------4-(4)-----|

|-(0)-----(0)--------------------|-----------------------3-(3)-----|

|--------------------------------|---------------------------------|

E E S E S +S E S +S E S

|--3--9-----------------------------|

|-------------10--------------------|

|----------------9-(9)-6-------6----|

|------------------------7-(7)------|

|-----------------------------------|

|-----------------------------------|

|

| +E. S +Q +E. S +S E S

|-----------------------------------|

|-------4-(4)------(4)--------------|

|-(3)---3-(3)------(3)--------------|

|-(4)---4-(4)------(4)--------------|

|-(3)-------------------------------|

|------------------------0-(0)-0----|

E E S E S +S E S E E S E S +S E S +S E S E E

|------6-----------------3----9-|----------------------------------6---|

|-7----------4-------1----------|-----10----------------------7--------|

|--------------3-(3)------------|----------9-(9)-6-------6-------------|

|-------------------------------|------------------7-(7)---------------|

|-------------------------------|--------------------------------------|

|-------------------------------|--------------------------------------|

|

| S E. +E. S +S E S S E. +S S S S +S E S +S E S +S E S

|-------------------------------|--------------------------------------|

|---1----(1)---------------1----|-(1)------1-(1)---1-(1)---1-(1)-----1-|

|---0----(0)---------------0----|-(0)--0---0-(0)---0-(0)---0-(0)-----0-|

|---1----(1)---------------1----|-(1)--1---1-(1)---1-(1)---1-(1)-----1-|

|-------------------------------|--------------------------------------|

|--------------0-(0)-0----------|--------------------------------------|

S E S +S E S E E S E S

|--------------------3--9------------|

|-----4---------1---------------10---|

|---------3-(3)--------------------9-|

|------------------------------------|

|------------------------------------|

|------------------------------------|

|

| +S S S S +Q +E. S +Q

|------------------------------------|

|-(1)-1-------------------4-(4)------|

|-(0)-0---3-(3)-----(3)---3-(3)------|

|-(1)-1---4-(4)-----(4)---4-(4)------|

|---------3-(3)-----(3)--------------|

|------------------------------------|

+S E S S E S S E S S E S

|---------------------------|

|---------------------------|

|-(9)-6---------------------|

|-------5-5-5---------------|

|-------------7-7-7-4-4-4-1-|

|---------------------------|

|

| +E. S S E S S E S S E S

|-------1-1-1---------------|

|-(4)---------2-2-2---------|

|-(3)---------------4-4-4-1-|

|-(4)-----------------------|

|---------------------------|

|---------------------------|

S E S S E S S E S S E S S E S S E S S E S S E S

|-------------------------|--------------------------|

|-------------------------|--------------------------|

|-------------------------|--------------------------|

|-------------------------|-----0-0-0-5-5-5----------|

|-1-1-------------------0-|-0-0-------------7-7-7-4--|

|-----5-5-5-1-1-1-0-0-0---|--------------------------|

|

| S E S S E S S E S S E S S E S S E S S E S S E S

|-------------------------|--------------------------|

|-------------------------|-----------5-5-5----------|

|-1-1---------------------|-----5-5-5-------7-7-7-4--|

|-----5-5-5-------------7-|-7-7----------------------|

|-----------6-6-6-5-5-5---|--------------------------|

|-------------------------|--------------------------|

S E S S E S S E S S E S S E S S E S S E S S E S S E S S E S S E S S E S

|-------------------------|-------------------------|--------------------------|

|-------------------------|-------------------------|--------------------------|

|-------------------------|-------------------------|--------------------------|

|-------------------------|-----------0-0-0-5-5-5---|--------------------------|

|-4-4-1-1-1---------------|-----0-0-0-------------7-|-7-7-4-4-4-1-1-1----------|

|-----------5-5-5-1-1-1-0-|-0-0---------------------|-----------------5-5-5-1--|

|

| S E S S E S S E S S E S S E S S E S S E S S E S S E S S E S S E S S E S

|-------------------------|-------------------------|--------------------------|

|-------------------------|-----------------5-5-5---|--------------------------|

|-4-4-1-1-1---------------|-----------5-5-5-------7-|-7-7-4-4-4-1-1-1----------|

|-----------5-5-5---------|-----7-7-7---------------|-----------------5-5-5----|

|-----------------6-6-6-5-|-5-5---------------------|-----------------------6--|

|-------------------------|-------------------------|--------------------------|

S E S S E S S E S S E S S E S S E S S E S S E S

|-------------------------|-------------------------|

|-------------------------|-------------------------|

|-------------------------|-------------------------|

|-----------------0-0-0-5-|-5-5---------------------|

|-----------0-0-0---------|-----7-7-7-4-4-4-1-1-1---|

|-1-1-0-0-0---------------|-----------------------5-|

|

| S E S S E S S E S S E S S E S S E S S E S S E S

|-------------------------|-------------------------|

|-----------------------5-|-5-5---------------------|

|-----------------5-5-5---|-----7-7-7-4-4-4-1-1-1---|

|-----------7-7-7---------|-----------------------5-|

|-6-6-5-5-5---------------|-------------------------|

|-------------------------|-------------------------|

S E S +E. S +E. S +Q

|--------------------------------|

|--------------------------------|

|--------------------------------|

|---------------------7-(7)------|

|---------------------6-(6)------|

|-5-5-0-(0)---0-(0)---7-(7)------|

|

| S E S S E S S E S S E S

|--------------------------------|

|--------------------------------|

|-----------------------------5--|

|-5-5-----------------7--7--7----|

|-----6--6--6-5--5--5------------|

|--------------------------------|

+E. S +E. S +E. S +E. S +E. S +E. S +E. S +E. S

|-----------------------------|-----------------------------|

|-------7-(7)-------10-(10)-8-|-(8)---7-(7)-------10-(10)-8-|

|-------------9-(9)-----------|-------------9-(9)-----------|

|-(7)-------------------------|-----------------------------|

|-(6)-------------------------|-----------------------------|

|-(7)-------------------------|-----------------------------|

|

| S E S +E. S +E. S +Q E S S +E. S +E. S +Q

|-----------------------------|-----------------------------|

|-------------4-(4)--5--(5)---|-------------4-(4)--5--(5)---|

|--5--5-6-(6)-----------------|-------6-(6)-----------------|

|-----------------------------|-----------------------------|

|-----------------------------|-----------------------------|

|-----------------------------|-----------------------------|

+E. S S S S S S S S S S S S S

|-------------------------------------|

|-(8)---7-7-7-7---------10-10-10-10-8-|

|---------------9-9-9-9---------------|

|-------------------------------------|

|-------------------------------------|

|-------------------------------------|

|

| E S S S S S S S S S S E E

|-------------------------------------|

|---------------4-4-4-4--5--5---------|

|-------6-6-6-6-----------------------|

|-------------------------------------|

|-------------------------------------|

|-------------------------------------|

S S S S S S S S S S S S S S S S S S S S S E S S E S S E S

|-------------------------------------|-------------------------------|

|-8-8-8-7-7-7-7---------10-10-10-10-8-|-8-8-8-------------------------|

|---------------9-9-9-9---------------|-------------------------------|

|-------------------------------------|-----------4-5-7-8-10-12-13----|

|-------------------------------------|-------5-6------------------10-|

|-------------------------------------|-------------------------------|

|

| E S S S S S S S S S S E E E S S S E S S E S S E S

|-------------------------------------|-------------------------------|

|---------------4-4-4-4--5--5---------|-------------------------------|

|-------6-6-6-6-----------------------|-------------------------------|

|-------------------------------------|-----------4-5-7-8-10-12-13----|

|-------------------------------------|-------5-6------------------10-|

|-------------------------------------|-------------------------------|

S E S S E S S E S +E. S +E. S +E. S +E. S S S S S

|-----------------------------------|--------------------------------0-|

|-----------------------------------|------------1--(1)--1--1--1--1----|

|-----------------------------------|------------0--(0)----------------|

|----------------16-17-19-20-(20)---|------------1--(1)----------------|

|-12-13-15-17-18--------------------|----------------------------------|

|---------------------------------0-|-(0)-0-(0)------------------------|

|

| S E S S E S S E S +E. S +E. S +E. S +E. S S S S S

|-----------------------------------|----------------------------------|

|-----------------------------------|----------------------------------|

|-----------------------------------|-----------18-(18)----------------|

|----------------16-17-19-20-(20)---|-----------19-(19)-------------16-|

|-12-13-15-17-18--------------------|-----------18-(18)-18-18-18-18----|

|---------------------------------0-|-(0)-0-(0)-19-(19)----------------|

S S S S S S S S +S E S S E S

|--0--0--0--1--1--1--1--4--(4)-----------|

|----------------------------------------|

|----------------------------------------|

|------------------------------------4-5-|

|--------------------------------5-6-----|

|----------------------------------------|

|

| S S S S S S S S +S E S S E S

|----------------------------------------|

|----------------------------------------|

|----------------------------------------|

|-16-16-16-17-17-17-17-20-(20)---0-1-4-5-|

|----------------------------------------|

|----------------------------------------|

S E S S E S S E S S E S

|-----------------------------------|

|-----------------------------------|

|-----------------------------------|

|-7-8-10-12-13-------------------16-|

|--------------10-12-13-15-17-18----|

|-----------------------------------|

|

| S E S S E S S E S S E S

|-----------------------------------|

|-----------------------------------|

|-----------------------------------|

|-7-8-10-12-13-------------------16-|

|--------------10-12-13-15-17-18----|

|-----------------------------------|

S E S +S S E E S S +E. S +E. S +Q +E. S S S S S

|-------------------------------|--------------------------------0-|

|-------------------------------|------1--(1)---(1)--1--1--1--1----|

|-------------------------------|------0--(0)---(0)----------------|

|-17-19-20-(20)-----------------|------1--(1)---(1)----------------|

|-------------------------------|----------------------------------|

|-----------------------0-(0)-0-|-(0)------------------------------|

|

| S E S +S S E E S S +E. S +E. S +Q +E. S S S S S

|-------------------------------|----------------------------------|

|-------------------------------|----------------------------------|

|-------------------------------|-----18-(18)--(18)----------------|

|-17-19-20-(20)-----------------|-----19-(19)--(19)-------------16-|

|-------------------------------|-----18-(18)--(18)-18-18-18-18----|

|-----------------------0-(0)-0-|-(0)-19-(19)--(19)----------------|

S S S S S S S S S S S S S S S S

|--0--0--0--1--1--1--1--4--4--4--4----------------|

|-----------------------------------4--4--4--4----|

|-----------------------------------------------5-|

|-------------------------------------------------|

|-------------------------------------------------|

|-------------------------------------------------|

|

| S S S S S S S S S S S S S S S S

|-------------------------------------------------|

|-------------------------------------------------|

|-------------------------------------------------|

|-16-16-16-17-17-17-17-20-20-20-20----------------|

|----------------------------------21-21-21-21----|

|----------------------------------------------24-|

S S S S S S S S S S S S S S S S

|-----------3--3--3--3---------0-0-0-0-1-|

|----------------------1-1-1-1-----------|

|--5--5--5-------------------------------|

|----------------------------------------|

|----------------------------------------|

|----------------------------------------|

|

| S S S S S S S S S S S S S S S S

|------------------------------0-0-0-0-1-|

|----------------------1-1-1-1-----------|

|----------------------------------------|

|----------------------------------------|

|----------24-24-24-24-------------------|

|-24-24-24-------------------------------|

Gtrs I, II

S S S S S S S S S S S S S S S S +E. S S E S S E S S E S

|-1-1-1-4-4-4-4-----------------3-|-(3)-------------------------|

|---------------4-4-4-4-----------|-----------------------------|

|-----------------------5-5-5-5---|-----------------------------|

|---------------------------------|---------4-5-7-8-10-12-13----|

|---------------------------------|-----5-6------------------10-|

|---------------------------------|-----------------------------|

Gtr I

S E S S E S S E S +S E S

|-------------------------------------|

|-------------------------------------|

|-------------------------------------|

|----------------16-17-19-20-(20)-----|

|-12-13-15-17-18----------------------|

|-----------------------------------0-|

|

| Gtr II

| S E S S E S S E S +S E S

|-------------------------------------|

|-------------------------------------|

|-------------------------------------|

|----------------16-17-19-20-(20)-----|

|-12-13-15-17-18----------------------|

|-----------------------------------0-|

+E. S +E. S +E. S S S S S S S S S S S S S +E. S S E S

|--------------------------------0-|--0--0--0--1--1--1--1--4--(4)---------|

|------------1--(1)--1--1--1--1----|--------------------------------------|

|------------0--(0)----------------|--------------------------------------|

|------------1--(1)----------------|----------------------------------4-5-|

|----------------------------------|------------------------------5-6-----|

|-(0)-0-(0)------------------------|--------------------------------------|

|

| +E. S +E. S +E. S S S S S S S S S S S S S +E. S S E S

|----------------------------------|--------------------------------------|

|----------------------------------|--------------------------------------|

|-----------18-(18)----------------|--------------------------------------|

|-----------19-(19)-------------16-|-16-16-16-17-17-17-17-20-(20)-0-1-4-5-|

|-----------18-(18)-18-18-18-18----|--------------------------------------|

|-(0)-0-(0)-19-(19)----------------|--------------------------------------|

S E S S E S S E S S E S

|-----------------------------------|

|-----------------------------------|

|-----------------------------------|

|-7-8-10-12-13-------------------16-|

|--------------10-12-13-15-17-18----|

|-----------------------------------|

|

| S E S S E S S E S S E S

|-----------------------------------|

|-----------------------------------|

|-----------------------------------|

|-7-8-10-12-13-------------------16-|

|--------------10-12-13-15-17-18----|

|-----------------------------------|

S E S +S S E E S S +E. S +E. S +Q +E. S S S S S

|-------------------------------|--------------------------------0-|

|-------------------------------|------1--(1)---(1)--1--1--1--1----|

|-------------------------------|------0--(0)---(0)----------------|

|-17-19-20-(20)-----------------|------1--(1)---(1)----------------|

|-------------------------------|----------------------------------|

|-----------------------0-(0)-0-|-(0)------------------------------|

|

| S E S +S S E E S S +E. S +E. S +Q +E. S S S S S

|-------------------------------|----------------------------------|

|-------------------------------|----------------------------------|

|-------------------------------|-----18-(18)--(18)----------------|

|-17-19-20-(20)-----------------|-----19-(19)--(19)-------------16-|

|-------------------------------|-----18-(18)--(18)-18-18-18-18----|

|-----------------------0-(0)-0-|-(0)-19-(19)--(19)----------------|

S S S S S S S S S S S S S S S S

|--0--0--0--1--1--1--1--4--4--4--4----------------|

|-----------------------------------4--4--4--4----|

|-----------------------------------------------5-|

|-------------------------------------------------|

|-------------------------------------------------|

|-------------------------------------------------|

|

| S S S S S S S S S S S S S S S S

|-------------------------------------------------|

|-------------------------------------------------|

|-------------------------------------------------|

|-16-16-16-17-17-17-17-20-20-20-20----------------|

|----------------------------------21-21-21-21----|

|----------------------------------------------24-|

S S S S S S S S S S S S S S S S

|-----------3--3--3--3---------0-0-0-0-1-|

|----------------------1-1-1-1-----------|

|--5--5--5-------------------------------|

|----------------------------------------|

|----------------------------------------|

|----------------------------------------|

|

| S S S S S S S S S S S S S S S S

|------------------------------0-0-0-0-1-|

|----------------------1-1-1-1-----------|

|----------------------------------------|

|----------------------------------------|

|----------24-24-24-24-------------------|

|-24-24-24-------------------------------|

S S S S S S S S S S S S S S S S S S S S S S S S S S S S S S S S

|-1-1-1-4-4-4-4-----------------3-|-3-3-3-----------0-0-0-0-1-1-1-1-4-|

|---------------4-4-4-4-----------|-------1--1--1-1-------------------|

|-----------------------5-5-5-5---|-----------------------------------|

|---------------------------------|-----------------------------------|

|---------------------------------|-----------------------------------|

|---------------------------------|-----------------------------------|

|

| S S S S S S S S S S S S S S S S S S S S +Q H

|-1-1-1-4-4-4-4-----------------3-|-3-3-3-3-(3)-----------------------|

|---------------4-4-4-4-----------|-----------------------------------|

|-----------------------5-5-5-5---|-----------------------------------|

|---------------------------------|-----------------------------------|

|---------------------------------|-----------------------------------|

|---------------------------------|-----------------------------------|

S S S S S S S S S S S S S S S S S S S S S S S S S S S S S S S S

|-4-4-4-----------------3-3-3-3---|-------0-0-0-0-1-1-1-1-4-4-4-4---|

|-------4-4-4-4-----------------1-|-1-1-1-------------------------4-|

|---------------5-5-5-5-----------|---------------------------------|

|---------------------------------|---------------------------------|

|---------------------------------|---------------------------------|

|---------------------------------|---------------------------------|

S S S S S S S S S S S S S S S S S S S S S S S S S S S S S S S S

|---------------3-3-3-3-----------0-|--0--0-0-1--1--1-1-4-4-4-4-----------|

|-4-4-4-----------------1--1--1-1---|---------------------------4-4-4-4---|

|-------5-5-5-5---------------------|-----------------------------------5-|

|-----------------------------------|-------------------------------------|

|-----------------------------------|-------------------------------------|

|-----------------------------------|-------------------------------------|

|

| Gtr II

| H E S S +E. S +E. S +Q H

|-----------------------------------|-------------------------------------|

|-----------------------------------|-------------------------------------|

|-----------------------------------|-------------------------------------|

|-----------------------0-(0)-----0-|-(0)-----0-(0)-----------------------|

|-----------------------0-(0)-----0-|-(0)-----0-(0)-----------------------|

|-----------------------0-(0)-----0-|-(0)-----0-(0)-----------------------|

S S S S S S S S S S S S S S S S S S S S S S S S S S S S S S S S

|-------3-3-3-3---------0--0--0-0-1-|--1--1-1-4--4--4-4-----------------3-|

|---------------1-1-1-1-------------|-------------------4-4-4-4-----------|

|-5-5-5-----------------------------|---------------------------5-5-5-5---|

|-----------------------------------|-------------------------------------|

|-----------------------------------|-------------------------------------|

|-----------------------------------|-------------------------------------|

|

| H E S S +E. S +E. S +Q H

|-----------------------------------|-------------------------------------|

|-----------------------------------|-------------------------------------|

|-----------------------------------|-------------------------------------|

|-----------------------0-(0)-----0-|-(0)-----0-(0)-----------------------|

|-----------------------0-(0)-----0-|-(0)-----0-(0)-----------------------|

|-----------------------0-(0)-----0-|-(0)-----0-(0)-----------------------|

S S S S S S S S S S S S S S S S S S S S S S S S S S S S S S S S

|-3-3-3---------0--0---0-0-1-1-1-1-4-|--4--4-4---------------------3-3-3-3---|

|-------1-1-1-1----------------------|---------4--4--4-4-------------------1-|

|------------------------------------|-------------------5--5--5-5-----------|

|------------------------------------|---------------------------------------|

|------------------------------------|---------------------------------------|

|------------------------------------|---------------------------------------|

|

| Q E S S +Q.. S +E. S +E. S +Q Q

|------------------------------------|---------------------------------------|

|---------------1-(1)----------------|---------------------------------------|

|---------------0-(0)----------------|---------------------------------------|

|---------------1-(1)--------------0-|-(0)-----0-(0)-----0-(0)---------------|

|----------------------------------0-|-(0)-----0-(0)-----0-(0)---------------|

|----------------------------------0-|-(0)-----0-(0)-----0-(0)---------------|

S S S S S S S S S S S S S S S S S S S S S S S S S S S S S S S S

|-------0-0-0-0-1-1-1-1-4--4--4-4---|-------------------3-3-3-3---------0-|

|-1-1-1---------------------------4-|--4--4-4-------------------1-1-1-1---|

|-----------------------------------|---------5--5--5-5-------------------|

|-----------------------------------|-------------------------------------|

|-----------------------------------|-------------------------------------|

|-----------------------------------|-------------------------------------|

|

| H E S S +E. S +E. S +Q H

|-----------------------------------|-------------------------------------|

|-----------------------------------|-------------------------------------|

|-----------------------------------|-------------------------------------|

|-----------------------0-(0)-----0-|-(0)-----0-(0)-----------------------|

|-----------------------0-(0)-----0-|-(0)-----0-(0)-----------------------|

|-----------------------0-(0)-----0-|-(0)-----0-(0)-----------------------|

S S S S S S S S S S S S S S S S S S S S S S S S S S S S S S S S

|-0-0-0-1-1-1-1-4-4-4-4-------------|---------3--3--3-3---------0-0-0-0-1-|

|-----------------------4--4--4-4---|-------------------1-1-1-1-----------|

|---------------------------------5-|--5--5-5-----------------------------|

|-----------------------------------|-------------------------------------|

|-----------------------------------|-------------------------------------|

|-----------------------------------|-------------------------------------|

|

| H E S S +E. S +E. S +Q H

|-----------------------------------|-------------------------------------|

|-----------------------------------|-------------------------------------|

|-----------------------------------|-------------------------------------|

|-----------------------0-(0)-----0-|-(0)-----0-(0)-----------------------|

|-----------------------0-(0)-----0-|-(0)-----0-(0)-----------------------|

|-----------------------0-(0)-----0-|-(0)-----0-(0)-----------------------|

S S S S S S S S S S S S S S S S S S S S S S S S S S S S S S S S

|-1-1-1-4-4-4-4-------------------3-|--3--3-3-----------0-0-0-0-1-1-1-1-4-|

|---------------4-4-4-4-------------|---------1--1--1-1-------------------|

|-----------------------5--5--5-5---|-------------------------------------|

|-----------------------------------|-------------------------------------|

|-----------------------------------|-------------------------------------|

|-----------------------------------|-------------------------------------|

|

| H E S S +E. S +E. S +Q H

|-----------------------------------|-------------------------------------|

|-----------------------------------|-------------------------------------|

|-----------------------------------|-------------------------------------|

|-----------------------0-(0)-----0-|-(0)-----0-(0)-----------------------|

|-----------------------0-(0)-----0-|-(0)-----0-(0)-----------------------|

|-----------------------0-(0)-----0-|-(0)-----0-(0)-----------------------|

S S S S S S S S S S S S S S S S S S S S S S S S S S S S S S S S

|-4-4-4--------------------3-3-3-3---|---------0--0--0-0-1--1--1-1-4-4-4-4---|

|-------4-4-4-4--------------------1-|--1--1-1-----------------------------4-|

|---------------5--5---5-5-----------|---------------------------------------|

|------------------------------------|---------------------------------------|

|------------------------------------|---------------------------------------|

|------------------------------------|---------------------------------------|

|

| Q E S S +Q.. S +E. S +E. S +Q Q

|------------------------------------|---------------------------------------|

|---------------1-(1)----------------|---------------------------------------|

|---------------0-(0)----------------|---------------------------------------|

|---------------1-(1)--------------0-|-(0)-----0-(0)-----0-(0)---------------|

|----------------------------------0-|-(0)-----0-(0)-----0-(0)---------------|

|----------------------------------0-|-(0)-----0-(0)-----0-(0)---------------|

S S S S S S S S S S S S S S S S S S S S S S S S S S S S S S S S

|---------------3-3-3-3-----------0-|--0--0-0-1--1--1-1-4-4-4-4-----------|

|-4-4-4-----------------1--1--1-1---|---------------------------4-4-4-4---|

|-------5-5-5-5---------------------|-----------------------------------5-|

|-----------------------------------|-------------------------------------|

|-----------------------------------|-------------------------------------|

|-----------------------------------|-------------------------------------|

|

| H E S S +E. S +E. S +Q H

|-----------------------------------|-------------------------------------|

|-----------------------------------|-------------------------------------|

|-----------------------------------|-------------------------------------|

|-----------------------0-(0)-----0-|-(0)-----0-(0)-----------------------|

|-----------------------0-(0)-----0-|-(0)-----0-(0)-----------------------|

|-----------------------0-(0)-----0-|-(0)-----0-(0)-----------------------|

S S S S S S S S +H +W +W +W

|-------3-3-3-3------------|-------------|-------------|---------|

|----------------1--(1)----|--(1)--------|--(1)--------|--(1)----|

|-5-5-5----------0--(0)----|--(0)--------|--(0)--------|--(0)----|

|----------------1--(1)----|--(1)--------|--(1)--------|--(1)----|

|--------------------------|-------------|-------------|---------|

|--------------------------|-------------|-------------|---------|

|

| Q E S S +H +W +W +W

|--------------------------|-------------|-------------|---------|

|---------------13-(13)----|-(13)--------|-(13)--------|-(13)----|

|---------------12-(12)----|-(12)--------|-(12)--------|-(12)----|

|---------------13-(13)----|-(13)--------|-(13)--------|-(13)----|

|---------------12-(12)----|-(12)--------|-(12)--------|-(12)----|

|--------------------------|-------------|-------------|---------|

+Q.. S +E. S +E. S +E. S +E. S +E. S +E. S

|---------------0-(0)-1-|-(1)-4-(4)-------------3-|

|--(1)----1-(1)---------|-----------4-(4)---------|

|--(0)------------------|-----------------5-(5)---|

|--(1)------------------|-------------------------|

|-----------------------|-------------------------|

|-----------------------|-------------------------|

|

| +Q.. S +E. S +E. S +Q Q H

|-----------------------|-------------------------|

|-(13)------------------|-------------------------|

|-(12)------------------|-------------------------|

|-(13)----0-(0)-0-(0)-0-|-(0)---------------------|

|-(12)----0-(0)-0-(0)-0-|-(0)---------------------|

|---------0-(0)-0-(0)-0-|-(0)---------------------|

+E. S +E. S +E. S +E. S +E. S +E. S +E. S +E. S

|-(3)---------0-(0)-1-(1)-4-|-(4)-------------3-(3)----|

|-----1-(1)-----------------|-----4-(4)-------------1--|

|---------------------------|-----------5-(5)----------|

|---------------------------|--------------------------|

|---------------------------

Get this song at:  amazon.com sheetmusicplus.com

Share your thoughts

0 Comments found