Insolence

Insolence - Get Up guitar tab

Artist: Insolence

Title: Get Up

Tabbed By: Mit

Drop D Tuning

-------------|----|-----------------------------------------------------------

-------------|----|-----------------------------------------------------------

-------------|----|-7---------------------------------------------------------

-------------|----|--6--------------------------------------------------------

-------------|----|-----------------------------------------------------------

-0-0-0-3h4p3h|3-0-|-----------------------------------------------------------

Riff A

---9--------------------------------------------------------------------------

------------------------------------------------------------------------------

-7----------------------------------------------------------------------------

------------------------------------------------------------------------------

------------------------------------------------------------------------------

------------------------------------------------------------------------------

Riff B (With Wah)

------------------------------------------------------------------------------

------------------------------------------------------------------------------

------------------------------------------------------------------------------

-0-0-0-3-4-3-1----------------------------------------------------------------

-0-0-0-3-4-3-1----------------------------------------------------------------

-0-0-0-3-4-3-1----------------------------------------------------------------

Riff C "You better Get Up!"

------------------------------------------------------------------------------

------------------------------------------------------------------------------

------------------------------------------------------------------------------

-0-0-0-1-3-4-3-4-3------------------------------------------------------------

-0-0-0-1-3-4-3-4-3------------------------------------------------------------

-0-0-0-1-3-4-3-4-3------------------------------------------------------------

Riff D

Get this song at:  amazon.com sheetmusicplus.com

Share your thoughts

0 Comments found