Indeep

Indeep - Last Night A Dj Saved My Life Bass guitar tab

Indeep – Last night a DJ saved my life

webmaster at tabs-database.com.com

Intro/Verse

G||--------------------------|

D||--------------------------| sometimes drop de first 2 notes

A||--04---------------02-----| listen to the song for the timing

E||----2--22--2--2--2--------|

Chorus

G||----------------------------------------------------------------------|

D||----------------------------------------------------------------------|

A||----------02-------------02---------------02-------------02-----13----|

E||--2-2-0-2----5--2-2-0-2----5-5-5-2-2-0-2----5--2-2-0-2----5-----------|

break

G||---------------------------------------|

D||---------------------------------4/----|

A||----------02-------------02----47------|

E||--2-2-0-2----5--2-2-0-2----5-----------|

That’s all the riffs, you can figure out the order yourselfAdded by tabs-database.com and our distinguished partners

Get this song at:  amazon.com sheetmusicplus.com

Share your thoughts

0 Comments found