Incubus

Incubus - You Will Be A Hot Dancer bass tab

Incubus

You Will Be A Hot Dancer From the Album Fungus Amongus

Standard Tuning

Intro (0:07)

|----------------7-----|

|----------------------|

|--5--5--5--5----------|

|--------------------4-|

Verse (0:18)

|--------------|---------------------|----------------|-----------------|

|---------3----|-------------3-------|-----------3----|-----------------|

|--5-5---------|-5--5-------------3--|-5-5------------|-------------3-3-|

|------------5-|--------1-1----3-----|--------------5-|-3-3-4-4-5-5-----|

|--------------|---------------------|----------------|------7-5-7-10---|

|---------3----|-------------3-------|-----------3----|-------------9---|

|--5-5---------|-5--5-------------3--|-5-5------------|-5-5-------------|

|------------5-|--------1-1----3-----|--------------5-|---------------0-|

|--------------|---------------------|----------------|-----------------|

|---------3----|-------------3-------|-----------3----|-----------------|

|--5-5---------|-5--5-------------3--|-5-5------------|-------------3-3-|

|------------5-|--------1-1----3-----|--------------5-|-3-3-4-4-5-5-----|

|--------------|---------------------|----------------|-----7-7-5-7-10--|

|---------3----|-------------3-------|-----------3----|--------------9--|

|--5-5---------|-5--5-------------3--|-5-5------------|-5-5-------------|

|------------5-|--------1-1----3-----|--------------5-|-----------------|

|--------------|---------------------|----------------|----------------------------------|

|--------3-----|-------------3-------|-----------3----|-------5--------6-------7-------8-|

|-5-5----------|-5—5--------------3--|-5-5------------|----------------------------------|

|------------5-|-------1-1-----3-----|--------------5-|-2h3-x---3h4-x----4h5-x---5h6-x---|

s s p s s p s s p s s p

Chorus (0:34)

|----------15-----|----------15-----|----------15-----|----------15-------|

|-------------15--|-------------15--|--------------15-|-------------------|

|-----------------|-----------------|-----------------|-------------12-14-|

|--0---0----------|--0---0----------|--0---0----------|--0---0------------|

|----------15-----|----------15-----|----------15-----|----------------15-----|

|--------------15-|--------------15-|-------------15--|-----------------------|

|-----------------|-----------------|-----------------|--------12-14-------14-|

|--0---0----------|--0---0----------|--0---0----------|--0---0----------------|

Pre-Verse (1:12)

|---x-----x-----x-x-7---5-(7)-|-----------16-16-|---x-----x-----x-----------7-|-------5-7--------|

|-----------------------------|-----------15-15-|-----------------------------|---5-7-----7------|

|-x---x-x---x-x-------x-------|--5-5-3—5/-------|-x---x-x---x-x---x-x-0-5-x---|-7-----------7-6^-|

|-----------------------------|-----------------|-----------------------------|------------------|

s p s s p s s p p p s p p s p s s p s s p s s s s s p

Verse (1:21)

|--------------|---------------------|----------------|-----------------|

|---------3----|-------------3-------|-----------3----|-----------------|

|--5-5---------|-5--5-------------3--|-5-5------------|-------------3-3-|

|------------5-|--------1-1----3-----|--------------5-|-3-3-4-4-5-5-----|

|--------------|---------------------|----------------|------7-5-7-10---|

|---------3----|-------------3-------|-----------3----|-------------9---|

|--5-5---------|-5--5-------------3--|-5-5------------|-5-5-------------|

|------------5-|--------1-1----3-----|--------------5-|---------------0-|

|--------------|---------------------|----------------|-----------------|

|---------3----|-------------3-------|-----------3----|-----------------|

|--5-5---------|-5--5-------------3--|-5-5------------|-------------3-3-|

|------------5-|--------1-1----3-----|--------------5-|-3-3-4-4-5-5-----|

|--------------|---------------------|----------------|-----7-7-5-7-10--|

|---------3----|-------------3-------|-----------3----|--------------9--|

|--5-5---------|-5--5-------------3--|-5-5------------|-5-5-------------|

|------------5-|--------1-1----3-----|--------------5-|-----------------|

|--------------|---------------------|----------------|----------------------------------|

|--------3-----|-------------3-------|-----------3----|-------5--------6-------7-------8-|

|-5-5----------|-5—5--------------3--|-5-5------------|----------------------------------|

|------------5-|-------1-1-----3-----|--------------5-|-2h3-x---3h4-x----4h5-x---5h6-x---|

s p s p s p s s p s s p

Chorus (1:58)

|----------15-----|----------15-----|----------15-----|----------15-------|

|-------------15/-|--------------15-|--------------15-|-------------------|

|-----------------|-----------------|-----------------|-------------12-14-|

|--0---0----------|--0---0----------|--0---0----------|--0---0------------|

|----------15-----|----------15-----|----------15-----|----------------15-----|

|-------------15--|--------------15-|--------------15-|-----------------------|

|-----------------|-----------------|-----------------|--------12-14-------14-|

|--0---0----------|--0---0----------|--0---0----------|--0---0----------------|

Interlude (2:15)

|-------------------------------------|---3---2---3---2---|X3|

|--------2--------2--------2--------2-|---2---1---2---1---|X3|

|-------------------------------------|-------------------|X3|

|-0h3-x----0h3-x----0h3-x----0h3-x----|-------------------|X3|

|-------------------------------------|-3-----------------------------|

|--------2--------2--------2--------2-|---2-0-3-----------------------|

|-------------------------------------|---------2-0-3-2-0-------------|

|-0h3-x----0h3-x----0h3-x----0h3-x----|-------------------3-2-0-1---1-|

DJ Solo (2:42)

|-------14--------12-------|

|--------------------------|

|--/12-------10------------|

|----------------------10-|

Guitar Solo (strait after DJ part)

|-------7-------------|-----------------|-------7--------|

|---7------7----5h7-5-|-----------3-2---|---7-----7------|

|-5---5------5--------|-3-3-3-3-3-----3-|-5---5-----5—-5-|

|---------------------|-----------------|----------------|

|---------------------------------------------|

|----------------5--------6--------7--------8-|

|-3-3-3-3-------------------------------------|

|---------2h3-x----3h4-x----4h5-x----5h6-x----|

s s p s s p s s p s s p

|-------7------------|------------------|--------7------|-----------------|

|---7-----7----5/7-5-|------------3-2---|----7----------|-----------3-2---|

|-5---5------5-------|-3-3-3-3-3------3-|--5---5---5--5-|-3-3-3-3-3-----3-|

|--------------------|------------------|---------------|-----------------|

|-------7-------------|-----------------|-------7--------|

|---7------7----5h7-5-|-----------3-2---|---7-----7------|

|-5---5------5--------|-3-3-3-3-3-----3-|-5---5-----5—-5-|

|---------------------|-----------------|----------------|

|---------------------------------------------|

|----------------5--------6--------7--------8-|

|-3-3-3-3-------------------------------------|

|---------2h3-x----3h4-x----4h5-x----5h6-x----|

s s p s s p s s p s s p

Chorus (3:10)

|----------15-----|----------15-----|----------15------|--------|---------15-----|

|--------------15-|-------------15--|-------------15---|--------|------------15--|

|-----------------|-----------------|------------------|--------|----------------|

|--0---0----------|--0---0----------|--0---0-----------|--0---0-|--0---0---------|

|-----------------|----------15-----|----------15----|----------15-----|----------15-----|

|--------------14-|--------------15-|----------------|--------------15-|--------------15-|

|-----------------|-----------------|-------------14-|-----------------|-----------------|

|--0---0---12-----|--0---0----------|-0---0----------|--0---0----------|--0---0----------|

|----------15-----|----------15-----|

|-----------------|-----------------|

|--------------14-|--------------14-|

|--0---0----------|--0---0----------|

Get this song at:  amazon.com

Share your thoughts

0 Comments found