Incubus

Incubus - Wish You Were Here guitar tab

Standard Tuning

Intro : Clean

E-----------------------------------------------|

B---5--5-5-5--5--5-5-5--------------------------|

G---4--4-4-4--4--4-4-4-------------------9--9---|

D---2--2-2-2--2--2-2-2--4--4-4-4/7--7-7--9--9---|

A---0--0-0-0--2--2-2-2--4--4-4-4/7--7-7--7--7---|

E-------------0--0-0-0--2--2-2-2/5--5-5--7--7---|

E-----------------------------------------------------|

B---5--5-5-5--5--5-5-5--------------------------------|

G---4--4-4-4--4--4-4-4-------------------9/11-11------|

D---2--2-2-2--2--2-2-2--4--4-4-4/7--7-7---------------|

A---0--0-0-0--2--2-2-2--4--4-4-4/7--7-7--7/9--9-------|

E-------------0--0-0-0--2--2-2-2/5--5-5--0------------|

Intro/Chorus : Distortion

E-----------------------------------------------|

B---5--5-5-5--5--5-5-5--------------------------|

G---4--4-4-4--4--4-4-4-------------------9--9---|

D---2--2-2-2--2--2-2-2--4--4-4-4/7--7-7--9--9---|

A---0--0-0-0--2--2-2-2--4--4-4-4/7--7-7--7--7---|

E-------------0--0-0-0--2--2-2-2/5--5-5--7--7---|

Verse : Clean w/ Delay/Echo

E----------------------12-------|

B-----7---7---------------9h10--|

G---9---9---6-------11----------|

D--------------9/11-------------|

A-------------------------------|

E-------------------------------|

E---------------------------------------|

B-----7---7-----------9----------7--7---|

G---9---9---6-------9---11--9--9----9---|

D--------------9/11---------------------|

A---------------------------------------|

E---------------------------------------|

Breakdown : Clean or Distortion w/ Phaser

E-----------------|

B-----7---7---7---|

G---9---9---9-----|

D-----------------|

A-----------------|

E-----------------|

Get this song at:  amazon.com sheetmusicplus.com

Share your thoughts

0 Comments found