Incubus

Incubus - Wish You Were Here (4 String) bass tab

Incubus -I Wish You Were Here

Album -Morning View

Standard tuning

Intro -no bass

Chorus

G-----------------------------------------------------------

D-----------------------------------------------------------

A-----------------------------------------------------------

E--5-5-0--0-0-7-710-12-12--5-5-0--0-0-2-25-0-0------------

Verse 1

G-------------------------------------------------------

D----------------------------------------9h11-9---------

A--------------------------------------9----------------

E-7---5---2---10------7---5---2---10--------------------

Verse 2

G--------------------------------------------------

D--------------------------------------------------

A--------------------------------------------------

E-7--7-7---5--5-5--5-5---2-2-2-2----10--10-10-10---

G---------------------------------------------------

D----------------------------------------9h11-9-----

A-----------5---5-5--5-5-----------5--7-------------

E-7--7-7-------------------1---1--1-----------------

Bridge

G--------------------------------------------------------

D--------------------------------------------------------

A--------------------------------------------12-14-1214--

E-7-7-5-x-x-5-2-11/10-7-7-5-xx-55-1-11-10-10-------------

Chorus x2

Verse 1 x2

Verse 2 x2

Bridge x3

Taken from The BassMasta -- http://www.tabs-database.com

Get this song at:  amazon.com

Share your thoughts

0 Comments found