Incubus

Incubus - Version guitar tab

Author/Artist: Incubus

Title: Version

Album: Album: Enjoy Incubus

Transcribed by: Ben Bradley

Email: supernaut@yourmom.com

(This part uses a whammy I believe)

Intro

-7-------7--

--7------7--

---7-----7--

----0----0--

------------

------------

Verse

-3-3-xxxxxxx------

-3-3-xxxxxxx------

-3-3-xxxxxxx------

------------------

------------------

------------------

Chorus

------------------------ -------------

------------------------ -------------

------------------------ after second --7----------

-555-xxxxx-555---------- chorus do --7-7-6------

-555-xxxxx-555---------- this -> --5-7-6------

-333-xxxxx-333---------- ----5-4------

After the next part thats played the same as the verse do this

-------------------------------

-------------------------------

-----------------5-------------

--5555555--4444--5-------------

--5555555--4444--3-------------

--3333333--2222----------------

Solo

--------------------------------------15-15-15---15-13-15---15-15-17-18-

-------------------------------------------------------------------------

-------13H14-14-14--14-14-15-17-14---------------------------------------

-------------------------------------------------------------------------

-9H10--------------------------------------------------------------------

-------------------------------------------------------------------------

-18-17-15-15-17-18-18-17-15-17-19-22-------------------------------------

-------------------------------------------------------------------------

-------------------------------------------------------------------------

-------------------------------------------------------------------------

-------------------------------------------------------------------------

-------------------------------------------------------------------------

Get this song at:  amazon.com

Share your thoughts

0 Comments found