Incubus

Incubus - Under My Umbrella Bass guitar tab

incubus - under my umbrella

bass tab

by : doky 2006

webmaster at tabs-database.com.com

4-stringed bass

G D A E

intro

|-------------------------------------------------|--------------------|

|-333-333-333-333---------------------------------|--------------------|

|-----------------444-444-444-444-----------------|--------2/6666-4444-|

|---------------------------------111-111-111-111-|-4444444------------|

verso

1 2 3 4

|-----------------|-----------------|-----------------|-------------------|

|-----------------|-----------------|-----------------|-------------------|

|-4--4---------11-|-4--4---------33-|-4--4---------11-|-------------------|

|--11-11-1-1-44---|--11-11-1-1-44---|--11-11-1-1-44---|-411-411-1-1-11-00-|

Variacion de nÂș 4 antes de entrar al coro

|-------------------|

|-------------------|

|-------------------|

|-411-411-1-1-11-11-|

coro

|-------------------------------------------------|--------------------|

|-333-333-333-333---------------------------------|--------------------|

|-----------------444-444-444-444-----------------|--------2/6666-4444-|

|---------------------------------111-111-111-111-|-4444444------------|

|-------------------------------------------------|--------------------|

|-333-333-333-333---------------------------------|--------------------|

|-----------------444-444-444-444-----------------|--------2/6666-4444-|

|---------------------------------444-444-444-444-|-1111111------------|

break

|----------------------|

|----------------------|

|----------2/6666\\4444-|

|-4444\\1111------------|

|--------4-|

|----------|

|-2222222--|

|----------|

middle

|-----------------|

|-----------------|

|-----------------|

|-1--111/8--888\\1-|

el ritmo de la cancion es muy bueno.

mando salutaciones y congratulaciones a todos los cuates que tienen los cds de "LO

MEJOR DEL PARTY" y "LO MEJOR DEL PARTY II", escuchen esos cds y tareense lo maximo!Added by tabs-database.com and our distinguished partners

Get this song at:  amazon.com sheetmusicplus.com

Share your thoughts

0 Comments found