Incubus

Incubus - The Warmth (acoustic) guitar tab

From: "Chris"

Subject: i/incubus/the_warmth_acoustic.tab

Date: Sun, 7 Apr 2002 21:09:03 +0200

Incubus - The Warmth acoustic (from the DVD)

transcribed by Chris le ouf !

Okay I see there's not any Warmth acoustic on Olga so I'm posting this =

one

transcribed from the DVD. I'm not sure at all, especially that chord :

G-9-- I'm pretty sure it's not right but I couldn't find any better =

one.

D-10-

A-7--

E-8--

E-------------------------------------------------------------

B-------------------------------------------------------------

G--12\9--9--9---9---9---9----9-------0-----0--0---------0-----

D-------------------10--10---10------7-----7--7--------4------

A--10\7--7--7---7---7---7----7-------5-----5--5-------2-------

E--0-----0--0---0---8---8----8-------3-----3--3------0--------

E-------------------------------------------------------------

B---17--17-17-17--17-17--13-13--13--13--8--8-8-8--8-8--5-5--5-

G---16--16-16-16--16-16--12-12--12--12--7--7-7-7--7-7--4-4--4-

D-------------------------------------------------------------

A-------------------------------------------------------------

E-------------------------------------------------------------

Here it is ! It's very small but I hope this will help you playing

this wonderful song. If you have any comment or suggestion or

question or correction or whatever to submit, feel free to mail

me at : chris.j84@free.fr

Get this song at:  amazon.com

Share your thoughts

0 Comments found