Incubus

Incubus - The Answer guitar tab

The Answer

Incubus

Fungus Amongus

Tabber: crazytom

deathtone@wanadoo.fr

Intro:

E---------------------

B---------------------

G---------------------

D---8-7-7-x-7-7-x-7---

A---8-7-7-x-7-7-x-7---

D---8-7-7-x-7-7-x-7---

Verse:

E----------------------

B----------------------

G----------------------

D---8-7-7-x-7---5--5---

A---8-7-7-x-7---5--5---

D---8-7-7-x-7---5--5---

Pre-chorus:

E------------------------------------------------

B------------------------------------------------

G------------------------------------------------

D---10-10-10-10-11-11-11---10-10-10-10-11-11-8---

A---10-10-10-10-11-11-11---10-10-10-10-11-11-8---

D---10-10-10-10-11-11-11---10-10-10-10-11-11-8---

Chorus:

E------------------------------------

B------------------------------------

G------------------------------------

D---8-7-5-7--7-7-7--8-7-5-7--7-7-7---

A---8-7-5-7--7-7-7--8-7-5-7--7-7-7---

D---8-7-5-7--7-7-7--8-7-5-7--7-7-7---

Bridge:

E---------------------|----------------------------------

B---------------------|----------------------------------

G---------------------|----------------------------------

D---8-7-5-5h7-7-x-7---|---5---4---7-7-7-7-7--7-7-7-7-7---

A---8-7-5-5h7-7-x-7---|-----------7-7-7-7-7--7-7-7-7-7---

D---8-7-5-5h7-7-x-7---|-----------7-7-7-7-7--7-7-7-7-7---

Solo:

E------------------------------------------------

B------------------------------------------------

G---5---6---9---10-------------------------------

D---5---6---9---10---6-5---------------------7---

A---3---4---7---8--------8/10-7--------------7---

D---------------------------------9h10p9-7---7---

Get this song at:  amazon.com

Share your thoughts

0 Comments found