Incubus

Incubus - Talk Shows On Mute guitar tab

Talk Shows On Mute

as recorded by Incubus

(from the album A Crow Left Of The Murder)

Email me @

Ghojdan@yahoo.com

Contact me @managok city

May be ill gi8ve u bukoy!

standard tunning

intro;

|-----------------|-----------------|-----------------|-------------------|

|-----------------|-----------------|-----------------|-------------------|

|-----------0-----|-----------0-----|-----------0-----|-------------------|

|-2-2-0-2-----2-0-|-2-2-0-2-----2-0-|-2-2-0-2-----2---|-2-2-0-2-0-/9-9-0--|

|-3-3-0-3-3-----0-|-3-3-0-3-3-----0-|-0-0-0-0-0-----0-|-0-0-0-0-0-/7-7-0--|

|-----------------|-----------------|-----------------|-------------------|

PM------| PM------| PM------| PM------|

|-----------------|-----------------|-----------------|-------------------|

|-----------------|-----------------|-----------------|-------------------|

|-----------0-----|-----------0-----|-----------0-----|-------------------|

|-2-2-0-2-----2-0-|-2-2-0-2-----2-0-|-2-2-0-2-----2---|-2-2-0-2-0-/9-9-0--|

|-3-3-0-3-3-----0-|-3-3-0-3-3-----0-|-0-0-0-0-0-----0-|-0-0-0-0-0-/7-7-0--|

|-----------------|-----------------|-----------------|-------------------|

PM------| PM------| PM------| PM------|

|-----------------|-----------------|-----------------|---------------------|

|-----------------|-----------------|-----------------|---------------------|

|-----------0-----|-----------0-----|-----------0-----|---------------------|

|-2-2-0-2-----2-0-|-2-2-0-2-----2-0-|-2-2-0-2-----2---|-2-2-0-2-0-/9-9-10---|

|-3-3-0-3-3-----0-|-3-3-0-3-3-----0-|-0-0-0-0-0-----0-|-0-0-0-0-0-/7-7--8---|

|-----------------|-----------------|-----------------|---------------------|

|---------------------|--------------------------|----3----------|----------0------|

|-----10-----10-10-10-|----10-10-10-10-10-10-----|----3--------6-|---6------0------|

|------0------0--0--0-|-----0--0--0--0--0--0-----|----4--------4-|---4------0------|

|-10--10-----10-10-10-|----10-10-10-10-10-10-----|----5--------3-|---3------2------|

|--8---8------8--8--8-|-----8--8--8--8--8--8-----|-5--5--5-5-5-5-|---5----2--------|

|---------------------|----------------------0-0-|-3--3--3-3-3-3-|---3--0------0-0-|

|--------------------|--------------------------|----3----3---6-|-(6)3--3-3-3-3-3--|

|----10--10-10-10-10-|----10-10-10-10-10-10-----|----3----3---6-|-(6)3--3-3-3-3-3--|

|-----9---9--9--9--9-|-----9--9--9--9--9--9-----|----4----4---7-|-(7)4--4-4-4-4-4--|

|----10--10-10-10-10-|----10-10-10-10-10-10-----|----5----5---8-|-(8)5--5-5-5-5-5--|

|-8---8---8--8--8--8-|-----8--8--8--8--8--8-----|-5--5--5-5-5/8-|-(8)5--5-5-5-5-5--|

|--------------------|----------------------0-0-|-3--3--3-3-3/6-|-(6)3--3-3-3-3-3--|

|-----------|----------|-^0-----------|--------|

|-^0--------|----------|-^0-----------|--------|

|-^0--------|----------|-^2-----------|--------|

|-^2--------|----------|-^2-----------|--------|

|-^3--------|----------|-^0----(0)----|-(0)----|

|-----------|----------|--------------|--------|

|-----------|----------|-----------|--------------|

|-^0--------|----------|-^0--------|--------------|

|-^0--------|----------|-^2--------|--------------|

|-^2--------|----------|-^2--------|--------9-9-0-|

|-^3--------|----------|-^0--------|--------7-7-0-|

solo

|----------------|-------------------|--------------------|----------------|

|----------------|-------------------|--------------------|----------------|

|----------------|-------------------|---------5----------|--------0----0--|

|----------------|-5---5-7-5h7-5---7-|-5h7-5-7---7-5-5h7--|----0-5-5--0----|

|-5h7--------5-7-|---7-----------7---|--------------------|----------------|

|----------------|-------------------|--------------------|----------------|

|--------------------|-------------------------------|--------------|---------------|

|--------------------|-------------------------------|--------------|---------------|

|-0-0--0--0-----0--0-|--0-------------0--0-----0-----|---------5----|--------5------|

|-5-7-10-10/1210-12-|-12/14-(14)12-12-1210-107-7-|-75-5-7------|----------7----|

|--------------------|-------------------------------|--------------|------------7/-|

|--------------------|-------------------------------|--------------|---------------|

|-----------------------|---------------------|-----------------|-----------------|

|-------10--------10----|---------------------|-----------------|-----------------|

|----------9------------|---------------------|-9---9-7-----7-7-|---9---9p7---7---|

|----10--------10----10-|-10-10-10-109-9-7-7-|---7-------7-----|-----7-----7---7-|

|-/8--------------------|---------------------|-----------------|-----------------|

|-----------------------|---------------------|-----------------|-----------------|

|-----------------|-----------------|----------------|--------------------|

|-----------------|-----------------|----------------|--------------------|

|-7---5----5---5-|-7---5-----5---5-|---4-4----4---4-|---4-4-4-4-4-4------|

|----7----7---7---|---7---7-7---7---|-7-7-7--7---7-5-|---5-5-5-5-5-5-0-0--|

|-----------------|-----------------|----------------|--------------------|

SALAMAT PART UR DA MAN!

Get this song at:  amazon.com sheetmusicplus.com

Share your thoughts

0 Comments found