Incubus

Incubus - Talk Show On Mute guitar tab

----------------------------------------------------------------------------

Talk Show On Mute - Incubus

----------------------------------------------------------------------------

Tabbed by: Andrew Williams

Email: occipital_spores145@hotmail.com

Tuning:Standard

Intro/ Verse 1 and 2

e|--------------------------------------------------------------------|

B|--------------------------------------------------------------------|

G|-----------0---------------0----------------0-----------------------|

D|-2-2-0-2-----2-0--2-2-0-2----2-0--2-2-0-2-----2----2-2-0-2-0-9-9-0--|

A|-3-3-0-3-3-----0--3-3-0-3-3----0--0-0-0-0-0-----0--0-0-0-0-0-7-7-0--|

E|--------------------------------------------------------------------|

Chorus

e|------------------------------------------------------3--3--3--3------0--|

B|--------10-----10-10-10---10-10-10-10-10-10-----------3--3--3--3------0--|

G|---------9------9--9--9----9--9--9--9--9--9-----------4--4--4--4------0--|

D|--10----10-----10-10-10---10-10-10-10-10-10-----------5--5--5--5------2--|

A|---8-----8------8--8--8----8--8--8--8--8--8------5----5--5--5--5----2----|

E|--------------------------------------------0-0--3----3--3--3--3--0------|

e|-------------------------------------------------3---3--6--3--3-3-3-3-3--|

B|----------10--10--10--10-10-10-10-10-10----------3---3--6--3--3-3-3-3-3--|

G|-----------9---9---9---9--9--9--9--9--9----------4---4--7--4--4-4-4-4-4--|

D|----------10--10--10--10-10-10-10-10-10----------5---5--8--5--5-5-5-5-5--|

A|-----8-----8---8---8---8--8--8--8--8--8-----5----5---5--8--5--5-5-5-5-5--|

E|-0-0------------------------------------0-0-3----3---3--6--3--3-3-3-3-3--|

Verse 3

e|--------------------------------------------------------------------|

B|--------------------------------------------------------------------|

G|-----------0---------------0----------------0-----------------------|

D|-2-2-0-2-----2-0--2-2-0-2----2-0--2-2-0-2-----2----2-2-0-2-0-9-9-0--|

A|-3-3-0-3-3-----0--3-3-0-3-3----0--0-0-0-0-0-----0--0-0-0-0-0-7-7-0--|

E|--------------------------------------------------------------------|

e|-0------------0------------0-----------0-------------|

B|-0------------0------------0-----------0-------------|

G|-0------------2------------0-----------2-------------|

D|-2------------2------------2-----------2------9-9-0--|

A|-3------------0------------3-----------0------7-7-0--|

E|-----------------------------------------------------|

Verse 4

e|--------------------------------------------------------------------|

B|--------------------------------------------------------------------|

G|-----------0---------------0----------------0-----------------------|

D|-2-2-0-2-----2-0--2-2-0-2----2-0--2-2-0-2-----2----2-2-0-2-0-9-9-0--|

A|-3-3-0-3-3-----0--3-3-0-3-3----0--0-0-0-0-0-----0--0-0-0-0-0-7-7-0--|

E|--------------------------------------------------------------------|

Chorus

e|------------------------------------------------------3--3--3--3------0--|

B|--------10-----10-10-10---10-10-10-10-10-10-----------3--3--3--3------0--|

G|---------9------9--9--9----9--9--9--9--9--9-----------4--4--4--4------0--|

D|--10----10-----10-10-10---10-10-10-10-10-10-----------5--5--5--5------2--|

A|---8-----8------8--8--8----8--8--8--8--8--8------5----5--5--5--5----2----|

E|--------------------------------------------0-0--3----3--3--3--3--0------|

e|-------------------------------------------------3---3--3--3--3-3-3-3-3--|

B|----------10--10--10--10-10-10-10-10-10----------3---3--3--3--3-3-3-3-3--|

G|-----------9---9---9---9--9--9--9--9--9----------4---4--4--4--4-4-4-4-4--|

D|----------10--10--10--10-10-10-10-10-10----------5---5--5--5--5-5-5-5-5--|

A|-----8-----8---8---8---8--8--8--8--8--8-----5----5---5--5--5--5-5-5-5-5--|

E|-0-0------------------------------------0-0-3----3---3--3--3--3-3-3-3-3--|

e|------------------------------------------------------3--3--3--3------0--|

B|--------10-----10-10-10---10-10-10-10-10-10-----------3--3--3--3------0--|

G|---------9------9--9--9----9--9--9--9--9--9-----------4--4--4--4------0--|

D|--10----10-----10-10-10---10-10-10-10-10-10-----------5--5--5--5------2--|

A|---8-----8------8--8--8----8--8--8--8--8--8------5----5--5--5--5----2----|

E|--------------------------------------------0-0--3----3--3--3--3--0------|

e|-------------------------------------------------3---3--6--3--3-3-3-3-3--|

B|----------10--10--10--10-10-10-10-10-10----------3---3--6--3--3-3-3-3-3--|

G|-----------9---9---9---9--9--9--9--9--9----------4---4--7--4--4-4-4-4-4--|

D|----------10--10--10--10-10-10-10-10-10----------5---5--8--5--5-5-5-5-5--|

A|-----8-----8---8---8---8--8--8--8--8--8-----5----5---5--8--5--5-5-5-5-5--|

E|-0-0------------------------------------0-0-3----3---3--6--3--3-3-3-3-3--|

Solo

e|----------------------------------------------------|

B|----------------------------------------------------|

G|-----------------------------------------5----------|

D|---------------5---5-7-5h7-5---7-5h7-5-7---7-5-5h7--|

A|--5p7------5-7---7-----------7----------------------|

E|----------------------------------------------------|

e|----------------------------------------------------------------------|

B|----------------------------------------------------------------------|

G|------0---0-0-0--0--0-----0--0--0-----------0--0-----0-------------5--|

D|--0-5-5-0---5-7-10-10h12-10-12-12h14-14p12-12-12p10-10p7-7-7p5-5-7----|

A|----------------------------------------------------------------------|

E|----------------------------------------------------------------------|

e|-------------------------------------------------------------------------|

B|-------------10------10--------------------------------------------------|

G|--5-------------9--------------------------------------------------------|

D|----7-----10------10----10-10-10-10-10-9-9-7-7--9---9-7----7-7--9---9p7--|

A|------7-8-----------------------------------------7------7--------7------|

E|-------------------------------------------------------------------------|

e|------------------------------------------------------------------------|

B|------------------------------------------------------------------------|

G|------------------------------------------------------------------------|

D|----7---7---5---5---5-7---5-----5---5-----4--4----4----4-4-4-4-4-4------|

A|--7---7---7---7---7-----7---7-7---7----7--7--7--7---7--5-5-5-5-5-5-0-0--|

E|------------------------------------------------------------------------|

Chorus

e|------------------------------------------------------3--3--3--3------0--|

B|--------10-----10-10-10---10-10-10-10-10-10-----------3--3--3--3------0--|

G|---------9------9--9--9----9--9--9--9--9--9-----------4--4--4--4------0--|

D|--10----10-----10-10-10---10-10-10-10-10-10-----------5--5--5--5------2--|

A|---8-----8------8--8--8----8--8--8--8--8--8------5----5--5--5--5----2----|

E|--------------------------------------------0-0--3----3--3--3--3--0------|

e|-------------------------------------------------3---3--6--3--3-3-3-3-3--|

B|----------10--10--10--10-10-10-10-10-10----------3---3--6--3--3-3-3-3-3--|

G|-----------9---9---9---9--9--9--9--9--9----------4---4--7--4--4-4-4-4-4--|

D|----------10--10--10--10-10-10-10-10-10----------5---5--8--5--5-5-5-5-5--|

A|-----8-----8---8---8---8--8--8--8--8--8-----5----5---5--8--5--5-5-5-5-5--|

E|-0-0------------------------------------0-0-3----3---3--6--3--3-3-3-3-3--|

Outro

e|-0------------0----------------------------|

B|-0------------0-------------------------5--|

G|-0------------2------------2------------5--|

D|-2------------2------------3------------7--|

A|-3------------0------------3------------7--|

E|---------------------------1------------5--|

Lyrics

Verse 1

Take a bow,

Pack on powder,

Wash em out with buzzing lights

Pay an audience to care,

Impress me personality.

Verse 2

Still and transfixed,

The electric sheep

Are dreaming of your face.

Enjoy you from the chemical

Comfort of America

Chorus

Come one,

Come all

Into 1984.

Yeah, three, two, one,

Lights, camera, transaction.

Verse 3

Quick, your time is almost up.

Make all forget that they're the moth.

Edging in towards the flame,

Burn into obscurity.

Verse 4

Still and transfixed,

The electric sheep

Are dreaming up your fate.

We judge you from

The card castle

Comfort of America.

Chorus

Come one,

Come all

Into 1984.

Yeah, three, two, one,

Lights, camera, transaction.

Verse 5

Your foundation is canyoning.

Fault lines should be worn with pride.

I hate to say it,

You're so much more,

You're so much more

Endearing with the sound turned off.

Get this song at:  amazon.com

Share your thoughts

0 Comments found