Incubus

Incubus - Still Not A Player guitar tab

----------------------------------------------------------------------------------------------

SONG: Still Not A Player

BAND: Incubus ft. Big Punisher

ALBUM: Loud Rocks!

TRANSCRIBED BY: Chris Frazier

DATE: 04-20-2K1

----------------------------------------------------------------------------------------------

TUNING: Standard (E, B, G, D, A, E)

Riff 1: w/ wah

E|-7----------5----------|

B|-7----------5----------|

G|-8-x-x-x-x--6--x-x-x-x-|

D|-9-x-x-x-x--7--x-x-x-x-|

A|-9-x-x-x-x--7--x-x-x-x-|

E|-7----------5----------|

Riff 2: w/ distortion

E|-------------------------------------------------|

B|-------------------------------------------------|

G|----------------------------6--6-6---------------|

D|-9--9-9-9---7--7-7-7-7-7-7--6--6-6--4--4-4-4-4-4-|

A|-9--9-9-9---7--7-7-7-7-7-7--4--4-4--4--4-4-4-4-4-|

E|-7--7-7-7---5--5-5-5-5-5-5----------2--2-2-2-2-2-|

Riff 3: w/ some odd effects and volume swells

E|-7----------5---------------4-------2------------|

B|-7----------5---------------4-------2------------|

G|-8----------6---------------6-------3------------|

D|-9----------7---------------6-------4------------|

A|-9----------7---------------4-------4------------|

E|-7----------5---------------4-------2------------|

Get this song at:  amazon.com

Share your thoughts

0 Comments found