Incubus

Incubus - Stellar2 guitar tab

stellar2.tab

Song: Stellar

Band: Incubus

Tab by: Jay Lomot(jaylomot@yahoo.com)

note: Kapa ko lang yan

E|------------------------------------|

B|------------------------------------|

G|--9-9/11-11^/6^---------------------|

D|--9-9/11-11^/6^-----6-----6-6-----6-|

A|----------------------4-4-----7-7---|

E|------------------------------------|

E|------------------------------------|

B|------------------------------------|

G|--9-9/11-11^/6^---------------------|

D|--9-9/11-11^/6^-----6-----6-6---6-7-|

A|----------------------4-4-----7-----|

E|------------------------------------|

pre chorus:

PRE-CHORUS (distorted)

E|-------------------------------------------------------------|

B|-------------------------------------------------------------|

G|-7-7-7--7-7-7-7--7-7--7-7-7--7--8-8-8--8-8-8-8--8-8--8-8-8-8-|

D|-7-7-7--7-7-7-7--7-7--7-7-7--7--9-9-9--9-9-9-9--9-9--9-9-9-9-|

A|-5-5-5--5-5-5-5--5-5--5-5-5--5--9-9-9--9-9-9-9--9-9--9-9-9-9-|

E|-5-5-5--5-5-5-5--5-5--5-5-5--5--7-7-7--7-7-7-7--7-7--7-7-7-7-|

CHORUS (distorted)

E|-------------------------------------------------------------|

B|-------------------------------------------------------------|

G|-------------------------------------------------------------|

D|-7--7-7-7---7-----6-6-----6------7--7-7-7---7-----6-6---6-7--|

A|-7--7-7-7---7-4-4-----7-7--------7--7-7-7---7-4-4-----7------|

E|-5--5-5-5---5--------------------5--5-5-5---5----------------|

E|-------------------------------------------------------------|

B|-------------------------------------------------------------|

G|-------------------------------------------------------------|

D|-7--7-7-7---7-----6-6---6-7------7--7-7-7---7-----6-6---6-7--|

A|-7--7-7-7---7-4-4-----7----------7--7-7-7---7-4-4-----7------|

E|-5--5-5-5---5--------------------5--5-5-5---5----------------|

BRIDGE (clean w/heavy reverb)

E|-----------------------------------------------------|

B|-----------------------------------------------------|

G|--9-9/11-11-----9-9\\6-6----9-9/11-11-----9-9\\6-6-----|

D|--9-9/11-11-----9-9\\6-6----9-9/11-11-----9-9\\6-6-----|

A|-----------------------------------------------------|

E|-----------------------------------------------------|

E|------------------------------------|

B|------------------------------------|

G|--9-9/11-11^/6^---------------------|

D|--9-9/11-11^/6^-----6-----6-6---6-7-|

A|----------------------4-4-----5-----|

E|------------------------------------|

INTERLUDE (clean w/phaser)

E|--------------------------------------------------------------|

B|--------------------------------------------------------------|

G|---------------------------4--------------------------------4-| 2x

D|-----0-0-------0-0-------0-0---------2-2-------2-2-------0--0-|

A|---7-----7---7-----7---5---5-------2-----2---2-----2----5---5-|

E|-5---------5---------3-----3-----0---------0---------0-3----3-|

OUTRO (distorted)

E|-------------------------------------------------------------|

B|-------------------------------------------------------------|

G|-------------------------------------------------------------|

D|--5-5-5-5-5-5-5-5-5-5-5-5--------7--7-7-7---7-----6-6---6-7--|

A|--5-5-5-5-5-5-5-5-5-5-5-5--------7--7-7-7---7-4-4-----7------|

E|--3-3-3-3-3-3-3-3-3-3-3-3--------5--5-5-5---5----------------|

pm.........

E|-------------------------------------------------------------|

B|-------------------------------------------------------------|

G|-------------------------------------------------------------|

D|-7--7-7-7---7-----6-6---6-7------7--7-7-7---7-----6-6---6-7--|

A|-7--7-7-7---7-4-4-----7----------7--7-7-7---7-4-4-----7------|

E|-5--5-5-5---5--------------------5--5-5-5---5----------------|

E|-------------------------------------------------------------|

B|-------------------------------------------------------------|

G|-------------------------------------------------------------|

D|-7--7-7-7---7-----6-6---6-7------7--7-7-7---7-----6-6---6-7--|

A|-7--7-7-7---7-4-4-----7----------7--7-7-7---7-4-4-----7------|

E|-5--5-5-5---5--------------------5--5-5-5---5----------------|

E|-------------------------------------------------------------|

B|-------------------------------------------------------------|

G|-------------------------------------------------------------|

D|-7--7-7-7---7-----6-6---6-7------7--7-7-7---7-----6-6---6-7--|

A|-7--7-7-7---7-4-4-----7----------7--7-7-7---7-4-4-----7------|

E|-5--5-5-5---5--------------------5--5-5-5---5----------------|

E|----------------------------------------------------0--------|

B|----------------------------------------------------0--------|

G|----------------------------------------------------2--------|

D|-7--7-7-7---7-----6-6---6-7--7-----6-6---6-7--------2--------|

A|-7--7-7-7---7-4-4-----7------7-4-4-----7------------0--------|

E|-5--5-5-5---5----------------5-------------------------------|

Thats it now all you have to do is figure out what order they go

in. if you have any questions e-mail me. (jaylomot@yahoo.com)

Get this song at:  amazon.com

Share your thoughts

0 Comments found