Incubus

Incubus - Speak Free guitar tab

song-speak free

band-incubus

tabber-enjoyincubus69

album-fungus amungus

this , shaft and psychopsilocybin are the best trax on

fungus amongus and dis sounds gr8 when played loud.

it sounds complicated but is in fact very easy....i'm

still workin' on psychopsilocybin.

intro/0:00/distortion

e--------------------------------------

b--------------------------------------

g--------------------------------------

d--------------------------------------

a---7-6-5---5--------------------------

e---------7---7-6-5-3-6-5-3-5p3-0-0----

bass part distortion

e---------------------------------------

b---------------------------------------

g---------------------------------------

d---5-5-5-2----2----2----222222222222---

a---5-5-5-2----2----2----222222222222---

e---3-3-3-0----0----0----000000000000---

i thought id include the bass part itelf being such a kind

chap

g|-----------7----7---------------------|

d|----5h7---------------5h7-----7-----7-|

a|-5h7----0h5--0h5---5h7----------------|

e|0-----------------0-------0h5---0h5---|

main riff distortion

e---------------------------------------------------------

b---------------------------------------------------------

g---------9-9-----7--7---7-7-----9-9-------9-9----7-7------------

d---------9-9-----7--7---7-7-----9-9-------9-9----7-7-----7-7-5---

a---------7-7-----5--5---5-5-----7-7-------7-7----5-5-----7-7-5---

e---0-0-0-----0-0-----0-0----0-0-----0-0-0----0-0----0-0--5-5-3---

filldistortion

e----------------------

b----------------------

g----------------------

d-------5----------5---

a---5h7---7p5------5---

e-------------7p5--3---

chorus distortion

e----------------------------------------------------

b----------------------------------------------------

g----------9-------------------9------------------------

d------9---9---9---7---8---9---9-----------------------

a------9---7---9---7---8---9---7-------------------------

e------7-------7---5---6---7----------------------------

played wit a couple of different easy 2 figure out endings

verse clean

e-------------------

b-------------------

g------9--7-7-7-9---

d-----9---7-7-7-9---

a----7----5-5-5-7---

e---0---------------

end of verse distortion

e--------------------

b--------------------

g---9-7-------9------

d---9-7-7-5-2-9--5---

a---7-5-7-5-2-7--5---

e-------5-3-0----3---

3:20 dis is played

e--------------------------------------------------

b--------------------------------------------------

g--------------------------------------------------

d--------------------------------------------------

a--19-18-17----17----------------------------------

e-----------19----19-18-17-15-18-17-15-17p15-12-12-

awsome song and very easy make sure to play along with the cd though

cause the bass part can be a bit confusing with out it.

enjoy incubus!!!

Get this song at:  amazon.com

Share your thoughts

0 Comments found