Incubus

Incubus - Science Album guitar tab

Author: Incubus

Album: S.C.I.E.N.C.E.

Tabbed by: Rob Joyce

Email: rob_joyce@hotmail.com

Tabbed: 16/07/02

I know there's a lot of people who wanted this album tabbed,

so I did it :-)

Hope u guys enjoy it, it took a lot of effort to write!

_______________________________________________________________________

Redefine

(Track 1)

Drop-D tuning

Intro

(Play all palm-muted)

e|-----------------------------------------------------------------

B|-----------------------------------------------------------------

G|-----------------------------------------------------------------

D|-----------------------------------------------------------------

A|---------------------------------------------------------3-------

D|-0-4-0-4-0-4-0-4-0-4-0-4-0-4-0-4-0-4-0-4-0-4-0-4-0-4-0-4---4-0-4-

e|-----------------------------------------------------------------

B|-----------------------------------------------------------------

G|-----------------------------------------------------------------

D|-------------------------------------------------0-0-0-0-3-3-3-3-

A|-------------------------0-----------------------0-0-0-0-3-3-3-3-

D|-0-4-0-4-0-4-0-4-0-4-0-4---4-0-4-0-4-0-4-0-4-0-4-0-0-0-0-3-3-3-3-

< Palm muted >

Verse

(Distortion)

Play the Main Riff x3 followed by the Interlude:

(Main Riff) (Interlude)

e|--------------------------------- -----------------

B|--------------------------------- -----------------

G|-------------------------5------- -----------------

D|-0-4---4-0-4---4---4-0-4-5-4-0-4- -0-0-0-0-3-3-3-3-

A|-0-4---4-0-4---4---4-0-4-3-4-0-4- x3, then -0-0-0-0-3-3-3-3-

D|-0-4---4-0-4---4---4-0-4---4-0-4- -0-0-0-0-3-3-3-3-

< Palm Muted >

Then play the Main Riff x3 followed by this chord:

e|-5--

B|-4--

G|-2--

D|-0-- (Play with Phaser at end of intro)

A|----

D|----

Verse

(Phaser)

e|-10-----8--8----8---------4-----10-----8--8----8-------5--5-

B|--------7--7----7---------3------------7--7----7-----3-4--4-

G|----------------------1---2------------------------1---2--2-

D|------------------------0------------------------0---------- x2

A|------------------------------------------------------------

D|------------------------------------------------------------

_______________________________________________________________________

Vitamin

(Track 2)

Standard Tuning

Intro

(Phaser)

e|-----------------

B|-----------------

G|-----------------

D|-2-2------------- x16

A|---------3-5-----

E|-----0-0-----0-0-

Main Riff

(Distortion)

e|------------------ -6-

B|------------------ -5- (Hit this chord rapidly at end of intro)

G|------------------ -3-

D|-2-2-----5/7------ ---

A|-----2-2-3/5-22-2- ---

E|-----0-0-----00-0- ---

Verse:

(Phaser and Echo)

e|-------------

B|-5-5-5-5-666-

G|-4-4-4-4-555-

D|------------- x8

A|-------------

E|-------------

Chorus

(Distortion)

e|----------------------------------- -6--

B|----------------------------------- -5-- (Hit this chord a few

G|----------------------------------- -3-- times going into the

D|-2-2--------------0-0-------------- x4 ---- interlude)

A|-----2-2-35--5-5-------3-3-35--2-2- ----

E|-----0-0-----3-3-------1-1-----0-0- ----

Interlude

(Distortion)

e|-------------------- ---------------------

B|-5----5----0----0--- -5----5--------------

G|--------5---------0- --------5--444444444-

D|-------------------- x3 then -----------444444444-

A|-------------------- -----------222222222-

E|-------------------- ---------------------

_______________________________________________________________________

New Skin

(Track 3)

Standard Tuning

*=Hitting string while covered

Intro

(Distortion)

(Main Riff) x4

e|------------------------------- -------------------------------

B|------------------------------- -------------------------------

G|-44--------44----44--------44-- ---4--4-4-4------4--4-4-4*7**7-

D|-44--------44----44--------44-- -> ---4--4-4-4*3----4--4-4-4*7**7-

A|-22--------22----22--------22-- --02--2-2-2*3---02--2-2-2*5**5-

E|------------------------------- -----------*1------------------

Verse

(Distortion)

e|-----------------------------------------

B|-----------------------13----------13-14-

G|-11-11--11--11--11--12----12----12-------

D|----------------------------------------- x3

A|-----------------------------------------

E|-----------------------------------------

Then-

a)First time around

e|----------------------------

B|----------------------------

G|-11-11--11--11--11--5--5--5-

D|--------------------5--5--5-

A|--------------------3--3--3-

E|----------------------------

b)Second time around

e|-14----13----12-----11------------

B|---13----12----11-----10----------

G|-----13----12----11-----10--------

D|---------------------------->>>>>-

A|---------------------------->>>>>-

E|---------------------------->>>>>-

slide up and

down quickly to make

a VOOOOOOOM sorta sound

Bridge

For the interlude i switch to wah-wah pedal in the low position-

it sounds right. At the end of the interlude, press the pedal to

the high position before switching to distortion for the chorus.

e|-------------------

B|-------------------

G|-444444---55555555-

D|-44444444455555555- x4

A|-22222244433333333-

E|-------222---------

Chorus

(Distortion)

e|---------------------------------------------------------

B|---------------------------------------------------------

G|---------9---9-9-----------10--1010------------9---9-9---

D|-7--7-7--9---9-9---10-1010-10--1010----7--7-7--9---9-9---

A|-7--7-7--7---7-7---10-1010--8---8-8----7--7-7--7---7-7---

E|-5--5-5--7---7-7----8--8-8--8---8-8----5--5-5--7---7-7---

---------------------

---------------------

----------12--121212-

-12-1212--12--121212-

-10-1010--10--101010-

--8--8-8-------------

Interlude

(Distortion)

e|----------------10----------------------------------------

B|-9-------------------------------------7--9---------------

G|---------8------------------8-----------------------------

D|-------------------------7------------------------9--7--9-

A|----------------------------------------------------------

E|----------------------------------------------------------

...Since the initial publication...

e|------------------------------------------

B|------------------------------------------

G|-4-4------4-4------4-4------4-44455-5-5-5- then play bridge

D|-4-4------4-4------4-4------4-44455-5-5-5-

A|-2-2------2-2------2-2------2-22233-3-3-3-

E|------------------------------------------

< P.M. >

Ending:

e|--------------

B|--------------

G|-4444-4-4-45--

D|-4444-4-4-45-- let the last chord ring

A|-2222-2-2-23--

E|--------------

< P.M. >

_______________________________________________________________________

Idiot Box

(Track 4)

Standard Tuning

Chorus

(Distortion)

e|----------------------------------------------------

B|----------------------------------------------------

G|-7---7---8-5-7---7---8-5-------------3---3---3------

D|-7---7---8-5-7---7---8-5-7---7---7-5-3---3---3-****-

A|-5---5---6-3-5---5---6-3-7---7---7-5-1---1---1-****- x2

E|-5---5---6-3-5---5---6-3-5---5---5-3-1---1---1-****-

Verse

(Phaser?)

e|---14------------7----------4---------------2----

B|--15-----------10----------7------------1------1-

G|-14-----------10----------7-----------2---2------

D|------------------------------------0------------

A|-------------------------------------------------

E|-------------------------------------------------

Interlude

First Part:

(Some sorta phaser maybe with an octaver?)

e|-7---------------7-8-7----3--4-4-

B|-7---------------7-8-7----3--4-3-

G|-0-------------------------------

D|---------------------------------

A|---------------------------------

E|---------------------------------

Second Part:

(Distortion)

e|----------------------

B|----------------------

G|----------------------

D|-5--5----5-5-55555555-

A|-5--5----5-5-55555555- x4 then leads into verse followed by chorus

E|-3--3----3-3-33333333-

At the end play the chorus with lots of covering the strings inbetween

hitting the chords to give a jerky start-stop sorta feel- listen

to it and u'll know what i mean.

The very final chord in the song sounds to me like its just the top

four strings played open.

_______________________________________________________________________

Glass

(Track 5)

(Standard Tuning)

The very first noise made in the song is a wierd sound. I was playing

around with chords trying to figure out what it was, but then i

realised it wasnt any notes, it's just a pick scrape with loads of

reverb and phaser. Do the scrape around the pickups or stoptail to get

the best sound.

Note-

This weird phaser scrape sound will be represented as "SCRAPE" in

this tab.

Intro (and verses)

(Octaver and Phaser i think)

e|--------------------------------- --------------------------

B|--------------------------------- --------------------------

G|--------------------------------- --------------------------

D|-67-6-06067-6-06067-6-06067-6-69- x5 -67-6-06067-6-0606--------

A|--------------------------------- ---------------------7-7-- SCRAPE

E|--------------------------------- ------------------555---5-

Bridge

(Distortion)

This is all harmonics- i cant find the right harmonic, but i

know it sounds like the same note as when u play the ninth fret on

the top-e string.

Try either:

A)

e|-99999999-99-9-99-

B|------------------

G|------------------

D|------------------

A|------------------

E|------------------

"..Youre never gonna be.."

or B) Play harmonics (*) on the THIRD fret of the low-E string.

Near the end of the bridge just before the chorus, move up the

neck while playing harmonics.

e|------------------

B|------------------

G|------------------

D|------------------

A|------------------

E|-********-**-*-**-

Chorus

(Distortion)

(#= palm-mute this chord)

e|-----------------------------------------------------------

B|-----------------------------------------------------------

G|-4----4-4----4-4----4-2--5--4----4-4------8/99-1111/1414/9-

D|-4----4-4----4-4----4-2--5--4----4-4----9-8/99-1111/1414/9-

A|-2----2-2----2-2----2-0--3--2----2-2----9-6/77--9-9/1212/7-

E|----------------------------------------7------------------

# # # #

"...Should i appologise..."

e|---------------------------

B|---------------------------

G|---------------------------

D|---------67-6-06067-6-69--- SCRAPE

A|----7-7--------------------

E|-555---5-------------------

Now play intro (second verse) followed by the bridge and then the

chorus.

Mini-bridge between second verse and bridge:

e|-------------------

B|-------------------

G|-------------------

D|-------------------

A|----7-7-------8-8--

E|-555---5---666---6-

Interlude

It starts with more weird noises which Mike plays. Its hard to say

what notes to play but i think its the open top E string and B string.

Use phaser, delay and reverb (i havent a clue what Mike uses but this

is what i use).

Here are the heavy bits:

(Distortion)

e|-0-0-0-0-6(let it ring)

B|-0-0-0-0---------------

G|-0-0-0-0---------------

D|-0-0-0-0--------------- x3

A|-0-0-0-0---------------

E|-0-0-0-0---------------

followed by:

e|-0-0-0-0----------------------------

B|-0-0-0-0----------------------------

G|-0-0-0-0----------------------------

D|-0-0-0-0-67-6-06067-6-0606--0--6--0- SCRAPE

A|-0-0-0-0----------------------------

E|-0-0-0-0----------------------------

e|------------------------------------------------------------------

B|------------------------------------------------------------------

G|------------------------------------------------------------------

D|-67-6-06067-6-06067-6-06067-6-69--67-6-06067-6-06067-6-06067-6-69-

A|------------------------------------------------------------------

E|------------------------------------------------------------------

"...If I could have a dime..."

Now play the chorus straight after.

Ending:

e|-----------------------------------------

B|-----------------------------------------

G|-11/14-14--11-11--9--8-------------------

D|-11/14-14--11-11--9--8-9-----------------

A|-9-/12-12--9--9---7--6-9---------7-7-----

E|-----------------------7------555---5--7-

_______________________________________________________________________

A Certain Shade of Green

(Track 7)

Standard Tuning

Intro (and Chorus)

(Distortion)

e|----------------------------------------------------------------------------

B|----------------------------------------------------------------------------

G|-7777---7777---88887777---77101010888774444---4444---44---33---33---33---33-

D|-7777---7777---88887777---77101010888774444---4444---44---33---33---33---33-

A|-5555---5555---66665555---558-8-8-666552222---2222---22---11---11---11---11-

E|----------------------------------------------------------------------------

Verse

(Distortion)

e|------------------------------

B|------------------------------

G|-----6-------9999999999999999-

D|-2-5-6-5----------------------

A|-2-5-4-5-----7777777777777777-

E|-0-3---3----------------------

Now play the Chorus followed by the Verse then another chorus.

Interlude

(Clean Funk)

e|-12---12---12---12---1212---12121212---12---12---1212-

B|------------------------------------------------------

G|-9----9----9----9----9-9----9-9-9-9----9----9----9-9--

D|------------------------------------------------------

A|------------------------------------------------------

E|------------------------------------------------------

e|-12---12---12---12---1212---12121212121212121212121212121212-

B|-------------------------------------------------------------

G|-9----9----9----9----9-9----9-9-9-9-9-9-9-9-9-9-9-9-9-9-9-9--

D|-------------------------------------------------------------

A|-------------------------------------------------------------

E|-------------------------------------------------------------

(Distortion fades in)

Solo

e|-0-0-0-0-12-12-12-12-0-0-0-0-12-12-13-13

B|----------------------------------------

G|----------------------------------------

D|----------------------------------------

A|----------------------------------------

E|----------------------------------------

continued...

-0-0-0-0-12-12-12-12-0-0-0-0-5-5-7-7-

-------------------------------------

-------------------------------------

------------------------------------- x4

-------------------------------------

-------------------------------------

Bridge

e|---------------------------------------

B|---------------------------------------

G|-33---33---33---33---33---33---33---33-

D|-33---33---33---33---33---33---33---33-

A|-11---11---11---11---11---11---11---11-

E|---------------------------------------

Next play straight into the Chorus.

Fade out at end playing the Bridge chords (palm-muted at very end).

_______________________________________________________________________

Favourite Things

(Track 8)

(Drop-D Tuning)

*=Hitting strings while covered

Intro

(Distortion)

e|-9----9--9---9--------------------------9----9--9---9------------

B|---------8---8----------------------------------8---8------------

G|-9----9---------------------------------9----9-------------------

D|-7----7--8---8------777------*****-*-**-7----7--8---8------78888-

A|--------------------777------*****-*-**--------------------78888-

D|--------------------777------*****-*-**--------------------78888-

e|-9----9--9---9--------------------------9----9--9---9----------------

B|---------8---8----------------------------------8---8----------------

G|-9----9---------------------------------9----9-------------910101010-

D|-7----7--8---8------777------*****-*-**-7----7--8---8----------------

A|--------------------777------*****-*-**--------------------7-8-8-8-8-

D|--------------------777------*****-*-**------------------------------

Verse

The bass guitar does most of the work here, so its just Mike doing

some eery effects using phaser and echo in the background.

(Phaser, Echo, Reverb)

Slide down

e|---------------------------------------------12-12-12-12

B|-2-------------------------------------------------------------

G|-2-------------------------------------------------------------

D|-2-------------------------------------------------------------

A|-0-------------------------------------------------------------

D|---------------------------------------------------------------

Bridge

(Distortion)

This part is much qicker than it looks here, its just that ive

spaced it all out so the '10's dont look like '1's and '0's. Grrrr.

e|-----------------------------------

B|-----------------------------------

G|-----------------------------------

D|-----------------------------------

A|-------------7-7-----------8-8-8-8-

D|-7-7-7-7-7-7-----9-9-10-10---------

Chorus

(Distortion)

e|-----------------------------

B|-----------------------------

G|-------10-10-----------------

D|-7--7--10-10-7--7-8---8-8/10- x2

A|-7--7--8--8--7--7-8---8-8/10-

D|-7--7--------7--7-8---8-8/10-

e|-----------------------------

B|-----------------------------

G|-2--2--------2--2-3----3-3/5-

D|-2--2--3--3--2--2-3----3-3/5- x2

A|-0--0--3--3--0--0-1----1-1/3-

D|-------3--3------------------

Interlude

e|------------------------

B|------------------------

G|-7----------------------

D|-7------6------5------3-

A|-5------6------5------3-

D|--------6------5------3-

_______________________________________________________________________

Summer Romance (Anti-Gravity Love Song)

(Track 9)

Normal Tuning

Intro

(Funk)

E|----------------------|-----------------------

B|----------------------|-----------------------

G|----------------------|-----------------------

D|----------------------|-----------------------

A|-2-5--2--0-0-2--------|---2-5--2--0-0-2------- x3

E|----------------2-2-5-|-----------------3-3-5-

then:

e|----------------------|-----------------------

B|----------------------|-----------------------

G|----------------------|-----------------------

D|----------------------|-----------------------

A|-2-5--2--0-0-2--------|----2-5--0-2-----------

E|----------------2-2-5-|--------------3-5--0-2-

Mini-Solo

Play this at the end of the intro.

E|-7-10-7----------------------------

B|--------9--------------------------

G|----------9-7----------7---7/9-7-7-

D|--------------9-7--6-9---9---------

A|-----------------------------------

E|-----------------------------------

Verse:

(Warm Jazz)

E|--7----------10-/-12-/-14--12--10-/-12--10--7-

B|--7-----------------------------------------------

G|--7----------7--/-9--/-11--9---7--/ 11--7---4-

D|--7-----------------------------------------------

A|--9-----------------------------------------------

E|--7-----------------------------------------------

Chorus

(Jazz)

E|--7-------5------------------7----

B|--8-------7--------8---------7----

G|--7-------6--------6---------7----

D|--9-------7--------8---------7----

A|--7-------5--------7---------9----

E|-------------------6---------7----

Now play the intro riffs x4 followed by:

Outro for Chorus:

E|--3-3--4-4--4-----------------77-7-77-7-

B|--3-3--4-4--4-----------------77-7-77-7-

G|--4-4--4-4--4-----------------77-7-77-7-

D|--4-4--4-4--4-----------------77-7-77-7-

A|--5-5--5-5--5-----------------99-9-99-9-

E|--3-3--3-3--3----2-0-2/10--9--77-7-77-7-

e|------9-7-------------------------------------------------

B|-----7--7-------------------------------------------------

G|----7---7-------------------------------------------------

D|---7----7-------------------------------------------------

A|--9-----9-------------------------------------------------

E|-7------7-------------------------------------------------

(Use a whammy bar to dip the pitch slightly down

then up on this final chord)

_______________________________________________________________________

Nebula

(Track 10)

Standard Tuning

Intro

(Distortion)

e|-6------6------6------6-

B|------------------------

G|------------------------ x3

D|------------------------

A|------------------------

E|------------------------

Riff 1

e|---------------------

B|---------------------

G|-------8---------8---

D|-7--7--8--77--7--8--- x4

A|-7--7--6--77--7--6---

E|-5--5-----55--5------

Riff 2

e|-----------------

B|-----------------

G|-----------------

D|---4-2-0-2-0---0- x3

A|-2-----------4---

E|-----------------

Bridge

e|------------------------

B|------------------------

G|------------------------

D|-5--5--5--5--7--7--7--7-

A|-5--5--5--5--7--7--7--7-

E|-3--3--3--3--5--5--5--5-

Now play 'Riff 2' x3 followed by 'Bridge' again, followed by:

Riff 3

e|------------------------------------------------------------0-------------------

B|------------------------------------------------------------0-------------------

G|-7--77--7--7--77------7--77--7--7--77------77--7--7--7--77--0---7--77--7--7--77-

D|-7--77--7--7--77------7--77--7--7--77------77--7--7--7--77--0---7--77--7--7--77-

A|-5--55--5--5--55------5--55--5--5--55------55--5--5--5--55------5--55--5--5--55-

E|--------------------------------------------------------------------------------

< Palm Muted > < Palm Muted > < Palm Muted > < Palm Muted >

Interlude

e|------------------ ------------------|------------------------

B|------------------ ------------------|-------5--5--------5--5-

G|------------------ -4----------------|-43/4-------43/4------

D|---4-2-0-2-0---0-- x4 then ------------------|------------------------

A|-2-----------4---- ------------------|------------------------

E|------------------ ------------------|------------------------

e|-7-------------2-----------------------------

B|-0-------------0--------------------------0--

G|-----------------------------9------------7--

D|---------------------------------------------

A|-----------------------------7------------5--

E|---------------------------------------------

Now play riff 3.

_______________________________________________________________________

Deep Inside

(Track 11)

Intro:

e|------------19--------10---10---10101010--

B|-9---------------------9----9----9-9-9-9--

G|-7------------16--------------------------

D|------------------------------------------

A|------------------------------------------

E|------------------------------------------

Chorus

e|-----7-----------------7-------------

B|-0---7---5-3-5-3---0---7---0-3---33--

G|-----7-----------------7-------------

D|-------------------------------------

A|-------------------------------------

E|-------------------------------------

e|-----7-----------------7---------55--

B|-0---7---5-3-5-3---0---7---3-3---55--

G|-----7-----------------7---4-2-------

D|-------------------------------------

A|-------------------------------------

E|-------------------------------------

e|-----7-----------------7-------------

B|-0---7---5-3-5-3---0---7---0-3---33--

G|-----7-----------------7-----2---22--

D|-------------------------------------

A|-------------------------------------

E|-------------------------------------

e|----77--------------------------------

B|-0--77---5-3-5-3------/5--3-----------

G|----77----------------------/4--2--2--

D|--------------------------------------

A|--------------------------------------

E|--------------------------------------

Verse

e|------------ --16--16--1616161616-

B|-30-0-0-0-0- --15--15--1515151515-

G|------------ x3 then --16--16--1616161616-

D|------------ ---------------------

A|------------ ---------------------

E|------------ ---------------------

e|--------------55---------------5--77--

B|-30-0-0-0-0---55------30-0-0-0----77--

G|--------------------------------------

D|--------------------------------------

A|--------------------------------------

E|--------------------------------------

e|----------5---77-----------7-7--55--55--

B|-30-0-0-0-----77-----------7-7--55--55--

G|------------------------4---------------

D|----------------------------------------

A|----------------------------------------

E|----------------------------------------

Bridge 1

(Heavy Distortion)

e|----------------------

B|----------------------

G|-9-----6--------------

D|-9-----6-----7-----8--

A|-7-----4-----7-----8--

E|-7-----4-----5-----6--

Bridge 2

(Clean Jazz)

e|-7--7-7---5--5-5---3--3-3----4--------------------------

B|-7--7-7---5--5-5---3--3-3----4--------------------------

G|-7--7-6---5--5-4---3--3-2----3--------------------------

D|-5--5-5---3--3-3---1--1-1-------------------------------

A|--------------------------------------------------------

E|--------------------------------------------------------

Interlude

e|---------------------

B|---------------------

G|-10-7----------------

D|------9-----7---997--

A|--------7-9---9------

E|---------------------

e|------------|------------|------------|-----------------

B|------------|------------|------------|-----55--55--55--

G|-6-----6h7-|-6-----6h7-|-6-----6h7-|-6-22--22--22--2-

D|------------|------------|------------|-----------------

A|------------|------------|------------|-----------------

E|------------|------------|------------|-----------------

e|------------|------------|-------------------------

B|------------|------------|-------5---5---5/7-3-5-3-

G|-6-----6h7-|-6-----6h7-|-6---22--22--22----------

D|------------|------------|-------------------------

A|------------|------------|-------------------------

E|------------|------------|-------------------------

First Solo

e|-------5------------3----10-----------678910-11------12-----12-12---

B|-----3----3---1---1--------8-----78910--------------------------10--

G|-4-6----------2-4-----------78910---------------------------------9-

D|--------------------------------------------------------------------

A|--------------------------------------------------------------------

E|--------------------------------------------------------------------

e|-1212--1313--15--17--20------|-10p9--9--9--9--9---|-9p5--5--5--5--5-

B|-----------------------------|--------------------|-----------------

G|-----------------------------|--------------------|-----------------

D|-----------------------------|--------------------|-----------------

A|-----------------------------|--------------------|-----------------

E|-----------------------------|--------------------|-----------------

e|--------------0---------------0-

B|--------------0---------------0-

G|-44-4-4-4-44-10--44-4-4-4-44--8-

D|-44-4-4-4-44-10--44-4-4-4-44--6-

A|-22-2-2-2-22--8--22-2-2-2-22--6-

E|--------------------------------

Second Solo

e|---------------------------------------------------------

B|-7------575----30353---0---0----3035bu753-0-3-0---0---0--

G|-------------------------2-----------------------2--2----

D|---------------------------------------------------------

A|---------------------------------------------------------

E|---------------------------------------------------------

e|-10p9----------9h10p9----------9101099121299----------910-12p10-12-9-

B|-----10------10------10------10-------------10------10---------------

G|-------11--11----------11--11-----------------11--11-----------------

D|---------12--------------12---------------------12-------------------

A|---------------------------------------------------------------------

E|---------------------------------------------------------------------

e|-10p97---5--7p4-5------2--5--12p9--12-12---12p9--12-12-12p912bu141414

B|------------------3--53----------10------------10--------------------

G|---------------------------------------------------------------------

D|---------------------------------------------------------------------

A|---------------------------------------------------------------------

E|---------------------------------------------------------------------

e|141412127-9-----------------------1210--10-14-10--101210--1210--10-10-10-

B|------------79bu10--97-77-------------12----------------------12---------

G|----------------------9--979~--7-----------------------------------------

D|-------------------------------------------------------------------------

A|-------------------------------------------------------------------------

E|-------------------------------------------------------------------------

e|-1010--------------------------------------------------------------

B|------12--10-9-10--9-1097-9bu10-------------------6p3--------------

G|-------------------------------7-9bu11-119p79p7-------4-----2--442-

D|--------------------------------------------------------2-4---4----

A|-------------------------------------------------------------------

E|-------------------------------------------------------------------

End Chord:

e|-55-

B|-44-

G|-22-

D|-----

A|-----

E|-----

_______________________________________________________________________

Calgone

(Track 12)

Intro

(Clean)

e|------------------------------

B|-2--2--2--2-----3--3--3--3----

G|--2--2--2--2-----3--3--3--3---

D|---3--3--3--3-----4--4--4--4-- x3

A|------------------------------

E|------------------------------

Riff 1

(Distortion)

e|----------------

B|----------------

G|--------5-------

D|-2*22-4-5-4-2-4-

A|-2*22-4-3-4-2-4-

E|-0*00-2---2-0-2-

Verse (Verse 1 only)

e|-0-0--------0-0--------0-0--------0-0--

B|-0-0--------0-0--------0-0--------0-0--

G|-0-0--------0-0--------0-0--------0-0-- x2

D|-0-0--------0-0--------0-0--------0-0--

A|---------------------------------------

E|---------------------------------------

Bridge

(Phaser)

e|---------------------------

B|----4------4------4------4-

G|----3------3------3------3- x2

D|--4-------4------4------4--

A|-2-------2------2------2---

E|---------------------------

Chorus

(Distortion)

e|-------------------------------------------------------------------------

B|-------------------------------------------------------------------------

G|-4-4---------2---4-4---------------4-4---------2---4-4---------7---------

D|-4-4---4-5-4-2---4-4---4-5-4-------4-4---4-5-4-2---4-4---4-5-4-7---------

A|-2-2---4-5-4-0---2-2---4-5-4-------2-2---4-5-4-0---2-2---4-5-4-5---------

E|-------2-3-2-----------2-3-2-------------2-3-2-----------2-3-2-----------

Verse

(Distortion)

e|------------0-

B|------------0-

G|--444-44-0-

D|------------0- x12

A|--------------

E|--------------

Outro

(Distortion)

e|--1--1--1---------1--1--1--------------------------

B|--0--0--0---------0--0--0--------------------------

G|--3--3--3---------3--3--3--------------------------

D|-------------------------------------------------2-

A|-------------------------------------------------2-

E|-------------------------------------------------0-

"Look what you fuckin did Gavin, you almost erased the

entire fuckin track..."

_______________________________________________________________________

AND THATS IT!!!

The whole S.C.I.E.N.C.E. album.

I'd love to hear what u guys think of this, so please comment.

And remember kids, Enjoy Incubus!

Get this song at:  amazon.com

Share your thoughts

0 Comments found